PrimaNota.ru - самый крупный в мире бесплатный архив песенных текстов, аккордов, табулатур и нот


Nashville Cast - Wild Card - аккорды и текст, видео

Регистрация Запомнить меня
Войти через:  Facebook Google Twitter Vk Yandex Mail.ru

Nashville Cast - Wild Card - аккорды и текст, видео

Печатать
Просмотров: 71
Новый альбом группы 'Черный Кузнец' по культовому сериалу 'Сверхъестественное'!
Wild Card
Nashville Cast
Hey! I'm a big fan of Lennon Stella and I love this song so I 
came up with something very similar to her acoustic version
https://www.youtube.com/watch?v=Ny3i4Tk-_q8 
hope you enjoy it! ( this is my first ever submission btw) ★ ☆ ✮

In the beginning I pluck how she does with the low D and the D Minor. 
then with the A, I switch to the A string and pluck with the A.
then when I go back to the D minor chord, I switch to the higher D string and
pluck with that. 

the thing I really struggled with was the G chord so I just pluck it between the two D 
strings..




e|----------1-----------------------------------------------------------------|
B|-3----3---3-------------------------------------------------------------------|
G|-2----3---2-------------------------------------------------------------------|
D|------3---0-------5-----------------------------------------------------------|
A|------0---------------------------------------------------------------------|
D|-0----------------5----------------------------------------------------------|
   Dm   A   Dm #2   G

the descending scale
e|---------------------------------------------------------------------------|
B|------------------------3---------------------------------------------------|
G|------------------------3---------------------------------------------------|
D|------------------------3---------------------------------------------------|
A|------------------------0---------------------------------------------------|
D|-12-11-10-9-8-7-5-3-------------------------------------------------------------------|
                         transition into the A
[INTRO]
Dm
I'm a wild card
A
I'm a sweetheart      
                      Dm
I've got fever in my blood
Dm
Uh oh
Dm
I'm a bullet

A
I'm a woman    
                Dm 
And I ain't afraid of a little mud

G
Don't underestimate me
Dm
Yeah I'm a little crazy
A
No I ain't no one's baby
A
Baby


(the descending scale) 
I'm a bad girl
I'm a real bad girl
Gonna shoot 'em up,
Pop, pop                   A
Hit you where it hurts so hard
             Dm
I'm a wild card

( the descending scale)
I'm a slick chick
I'm a real slick chick
Gonna hit the gas drop top
                          A
Leave you in the dust so hard
             Dm
I'm a wild card

I'm big trouble
          A
And I hustle
                               Dm
When there's fire I feed the flame, uh oh
Never gonna catch me no uh oh
A
Never gonna wear that halo
A
And you know           Dm
I like to play those games

G
Don't underestimate me
Dm
Yeah I'm a little crazy
A
No I ain't no one's baby
A
Baby

( the descending scale)
I'm a bad girl
I'm a real bad girl
Gonna shoot 'em up
Pop, pop                   A
Hit you where it hurts so hard
       Dm
I'm a wild card

( the descending scale)
I'm a slick chick
I'm a real slick chick
Gonna hit the gas drop top
                          A
Leave you in the dust so hard
            Dm
I'm a wild card
Добавлено: 17.01.2018
Другие материалы по этой песне:
  • Аккорды и текст

Страница создана 17.01.2018
http://primanota.ru/nashville-cast/wild-card-chords.htm
Привет, Гость.
Предлагаем пройти революционный курс по гитаре.
Подарок от PrimaNota.Ru, забирай!