PrimaNota.ru - самый крупный в мире бесплатный архив песенных текстов, аккордов, табулатур и нот


Народен - Кой Уши Байряка - аккорды и текст, видео

Регистрация Запомнить меня
Войти через:  Facebook Google Twitter Vk Yandex Mail.ru

Народен - Кой Уши Байряка - аккорды и текст, видео

Печатать
Просмотров: 110
Кой Уши Байряка
Народен
Intro
E--/10--10--10-9-10--8-7----7------------------------7-----------|
B-------------------------10-10-10--10-7-8--7-7----7--10-10-7-8--|
G----------------------------------------------9-----------------|
D----------------------------------------------------------------|
A----------------------------------------------------------------|
E----------------------------------------------------------------|

E----------------------------------------------------------------|
B--7-8-10-7------------7-8-10------------------------------------|
G----------7-9--7-6-7-9------------------------------------------|
D----------------------------------------------------------------|
A----------------------------------------------------------------|
E----------------------------------------------------------------|


E--/10--10--10-9-10h12p10p9--7---10------------------------7----------|
B-------------------------------10-10-10--10-7-8--7-7----7--10-10-7-8-|
G----------------------------------------------------9----------------|
D---------------------------------------------------------------------|
A---------------------------------------------------------------------|
E---------------------------------------------------------------------

E---------------------------------------------------------------------|
B-7-8-10-7------------------------------------------------------------|
G----------7-9--7-6-7-9-----------------------------------------------|
D---------------------------------------------------------------------|
A---------------------------------------------------------------------|
E---------------------------------------------------------------------|


Em                 Am      Em
 Айде, провикна се турския паша
        G  D  G
 от Панагю-ри-ще,
                 Am      Em
 Айде, вий идете и я уловете 
  D        Am   B   Em
 Райна Поп-геор-гие-ва!
  G              Am     Em
 Айде, вий идете и я уловете 
  D        Am   B   Em
 Райна Поп-геор-гие-ва!

Intro
 Em             Am        Em
 Нито я колете, нито я бесете, 
               G   D   G
 най при мене доведете я!
            G      Am         Em 
 Ази да я питам, питам и разпитвам, 
 D       Am B  Em
 кой уши байрака,
G             G   Am          Em
 кой уши байрака, кой му тури знака 
  D         Am B Em
 "Смърт или свобода"!

intro
Em                Am            Em  
 Айде провикна се Райна Попгеоргиева 
        G  D  G
 от Панагю-ри-ще,
G                Am         Em
 Щете ме колете, щете ме бесете,
D        Am B  Em  
 аз уших байрака!
                  Am          Em 
 Аз уших байрака, аз му турих знака
D           Am B Em
 "Смърт или свобода"!
Добавлено: 18.05.2016
Другие материалы по этой песне:
  • Аккорды и текст

Страница создана 18.05.2016
http://primanota.ru/naroden/koi-ushi-bairyaka-chords.htm
Привет, Гость.
Предлагаем пройти революционный курс по гитаре.
Подарок от PrimaNota.Ru, забирай!