PrimaNota.ru - самый крупный в мире бесплатный архив песенных текстов, аккордов, табулатур и нот


Nargaroth - Der Leiermann - таба, видео

Регистрация Запомнить меня
Войти через:  Facebook Google Twitter Vk Yandex Mail.ru

Nargaroth - Der Leiermann - таба, видео

Печатать
Просмотров: 193
-----------------------------------------------------------------------------
                             Der Leiermann - Nargaroth
-----------------------------------------------------------------------------


    Band:  Nargaroth
    Album: Semper Fidelis
    Song:  Der Leiermann
    Copyright (c) No Colours
    Version 1.0 - 20/12/2012
    Transcribed By: ulfskeptr
    Email: malignitas-odium@hotmail.com



.  - palm mute            ,  - slight palm mute
\  - slide down to        /  - slide up to
~  - vibrato              b  - bend
h  - hammer on            p  - pull off
[] - second time          *  - see comment
t  - tap                  ph - pinched harmonic
x - staccato              () - ghost note, sustained note
"  - tremolo note         <> - trill

Suffixes for bend
f  - full bend    h - half bend
q  - quarter bend t - tap bend
^  - hold bend    r - release bend
~  - vibrato bend


Tuning: E A D G B e

Riff1 - A
e|----------------------------------------------------------------------------|
B|----------------------------------------------------------------------------|
G|----------------------------------------------------------------------------|
D|-7-7-10--7-7-7-10--7-7-7-10-7-9-7-10-7--------------------------------------|
A|-0-0-0---0-0-0-0---0-0-0-0--0-0-0-0--0--7-7-10--7-7-7-10--7-7-7-10-7-9-7-10-|
E|----------------------------------------0-0-0---0-0-0-0---0-0-0-0--0-0-0-0--|

----------------------------------------------------------------------------|
----------------------------------------------------------------------------|
----------------------------------------------------------------------------|
----------------------------------------------------------------------------|
-7--------------------------------------------------------------------------|
-0--------------------------------------------------------------------------|

Riff2 - A
e|---------------------------------------------------------------------------|
B|---------------------------------------------------------------------------|
G|---------------------------------------------------------------------------|
D|---------------------------------------------------------------------------|
A|-2-2-3--2-2-2-3--2-2-2-3--2-2-2-3-2--2-2-3--2-2-2-3--2-2-2-3--2-2-2-3-2----|
E|-0-0-0--0-0-0-0--0-0-0-0--0-0-0-0-0--3-3-3--3-3-3-3--3-3-3-3--3-3-3-3-3----|


----------------------------------------------------------------------------|
----------------------------------------------------------------------------|
----------------------------------------------------------------------------|
----------------------------------------------------------------------------|
-0-0-3--0-0-0-3--0-0-0-2-0-5-0-3h5--2-2-3--2-2-2-3--2-2-2-3-2-5-2-3-2-------|
-2-2-2--2-2-2-2--2-2-2-3-2-2-2-2-2--0-0-0--0-0-0-0--0-0-0-0-0-0-0-0-0-------|


Riff1 - B
e|----------------------------------------------------------------------------|
B|----------------------------------------------------------------------------|
G|----------------------------------------------------------------------------|
D|-7-7-10--7-7-7-10--7-7-7-10-7-12-10-9-10------------------------------------|
A|-0-0-0---0-0-0-0---0-0-0-0--0-0--0--0-0--7-7-10--7-7-7-10--7-7-7-10-7-12-10-|
E|-----------------------------------------0-0-0---0-0-0-0---0-0-0-0--0-0--0--|

----------------------------------------------------------------------------|
----------------------------------------------------------------------------|
----------------------------------------------------------------------------|
----------------------------------------------------------------------------|
-9-10-----------------------------------------------------------------------|
-0-0------------------------------------------------------------------------|

Riff2 - B
e|--------------------------------------------------------------------------|
B|--------------------------------------------------------------------------|
G|--------------------------------------------------------------------------|
D|--------------------------------------------------------------------------|
A|-2-2-2-2-2-2-2-2-2-2-2-2-2-2-2-2-3-3-3-3-3-3-3-3-3-3-3-3-3-3-5-5----------|
E|-0-0-0-0-0-0-0-0-0-0-0-0-0-0-0-0-2-2-2-2-2-2-2-2-2-2-2-2-2-2-3-3----------|


Structure:

Riff1 A - 4x
Riff2 A - 2x
Riff1 A - 4x
Riff2 A - 2x
Riff1 A - 4x
Riff2 A - 2x
Riff1 B - 8x
Riff2 A - 2x
Riff1 B - 8x
Riff2 B - 4x
Riff1 B - 4x
Riff2 B - till end...
Добавлено: 10.08.2013
Вам также может быть интересно:
Другие материалы по этой песне:

Страница создана 10.08.2013
http://primanota.ru/nargaroth/der-leiermann-chords.htm
Привет, Гость.
Предлагаем пройти революционный курс по гитаре.
Подарок от PrimaNota.Ru, забирай!