PrimaNota.ru - самый крупный в мире бесплатный архив песенных текстов, аккордов, табулатур и нот


Narayan Gopal - Ma Ta Laliguras - аккорды и текст, видео

Регистрация Запомнить меня
Войти через:  Facebook Google Twitter Vk Yandex Mail.ru

Narayan Gopal - Ma Ta Laliguras - аккорды и текст, видео

Печатать
Просмотров: 41
Уроки эстрадного вокала в Санкт-Петербурге
Ma Ta Laliguras
Narayan Gopal
Flute Solo:

E-------------15-13(~)--------------13-11(~)----------10-8------------------------|
B-13-16-13-13-----------11-13-11-11------------9-11-9------10-8------------6-6/8--| ( x2)
G---------------------------------------------------------------5-8-5-8-----------|
D---------------------------------------------------------------------------------|
A---------------------------------------------------------------------------------|
E---------------------------------------------------------------------------------|


E---8-10-11-10-8----8-10-8-10-8-|  
B-8---------------8-------------|   ( x 2 )
G-------------------------------|
D-------------------------------|
A-------------------------------|
E-------------------------------|


Cm               Gm 
ma ta lali gurash vayechu
Bb
banai vari fuli dinchu
F             Cm 
manai vari fuli dinchu
Cm              Gm    Cm 
ma ta lali gurash vayechu

Cm            Bb             Ab    Gm     Cm 
faat harule kaslai pugcha , vir ma pani fulidinchu
F            Bb  Cm       Bb      Cm 
khusi matra kaha huncha, pir ma pani fuli dinchu

Cm            Bb             Ab    Gm     Cm 
heri dine kohi vaidiye, nani vitra fuli dinchu
F            Bb  Cm       Bb      Cm 
laai dine kohii vaidiye, siudo vari fuli dinchu

Cm               Gm 
ma ta lali gurash vayechu
Bb
banai vari fuli dinchu
F             Cm 
manai vari fuli dinchu
Cm            Gm    Cm 
ma ta lali gurash vayechu
Добавлено: 26.12.2015
Другие материалы по этой песне:
  • Аккорды и текст

Страница создана 26.12.2015
http://primanota.ru/narayan-gopal/ma-ta-laliguras-chords.htm
Привет, Гость.
Предлагаем пройти революционный курс по гитаре.
Подарок от PrimaNota.Ru, забирай!