PrimaNota.ru - самый крупный в мире бесплатный архив песенных текстов, аккордов, табулатур и нот


Nappy Roots - Good Day - текст песни, таба, видео

Регистрация Запомнить меня
Войти через:  Facebook Google Twitter Vk Yandex Mail.ru

Nappy Roots - Good Day - текст песни, таба, видео

Печатать
Просмотров: 115
-------------------------------------------------------------------------------
                             Good Day - Nappy Roots
-------------------------------------------------------------------------------

Tabbed by: laviru93doodle aka Laviru K.

e|-------------|-------|-------------|-------||R
B|-------------|-------|-------------|-------||E
G|-------------|-------|-------------|-------||P
D|--2-2-----2--|-------|--2-2-----2--|-------||E
A|-------4-----|--2-4--|-------4-----|--2-4--||A
E|-------------|-------|-------------|-------||T

you can also play it this way:

e|-------------|-------|-------------|-------||R
B|-------------|-------|-------------|-------||E
G|-------------|-------|-------------|-------||P
D|-------------|-------|-------------|-------||E
A|--7-7-----7--|-------|--7-7-----7--|-------||A
E|-------9-----|--7-9--|-------9-----|--7-9--||T

or this way :

e|-------------|-------|-------------|-------||R
B|-------------|-------|-------------|-------||E
G|--9-9-----9--|-------|--9-9-----9--|-------||P
D|------11-----|--9-11-|------11-----|--9-11-||E
A|-------------|-------|-------------|-------||A
E|-------------|-------|-------------|-------||T

or this way :

e|-------------|-------|-------------|-------||R
B|--5-5-----5--|-------|--5-5-----5--|-------||E
G|-------6-----|--4-6--|-------6-----|--4-6--||P
D|-------------|-------|-------------|-------||E
A|-------------|-------|-------------|-------||A
E|-------------|-------|-------------|-------||T

or this way :

e|--0-0-----0--|-------|--0-0-----0--|-------||R
B|-------2-----|--0-2--|-------2-----|--0-2--||E
G|-------------|-------|-------------|-------||P
D|-------------|-------|-------------|-------||E
A|-------------|-------|-------------|-------||A
E|-------------|-------|-------------|-------||T

-----------------------------------------------------------------------------------------------------

you can also add a hammer ,it's sounds cool too and the tabs would be:

e|-------------|-------|-------------|-------||R
B|-------------|-------|-------------|-------||E
G|-------------|-------|-------------|-------||P
D|--2-2-----2--|-------|--2-2-----2--|-------||E
A|-------4-----|--2h4--|-------4-----|--2h4--||A
E|-------------|-------|-------------|-------||T

you can also play it this way:

e|-------------|-------|-------------|-------||R
B|-------------|-------|-------------|-------||E
G|-------------|-------|-------------|-------||P
D|-------------|-------|-------------|-------||E
A|--7-7-----7--|-------|--7-7-----7--|-------||A
E|-------9-----|--7h9--|-------9-----|--7h9--||T

or this way :

e|-------------|-------|-------------|-------||R
B|-------------|-------|-------------|-------||E
G|--9-9-----9--|-------|--9-9-----9--|-------||P
D|------11-----|--9h11-|------11-----|--9h11-||E
A|-------------|-------|-------------|-------||A
E|-------------|-------|-------------|-------||T

or this way :

e|-------------|-------|-------------|-------||R
B|--5-5-----5--|-------|--5-5-----5--|-------||E
G|-------6-----|--4h6--|-------6-----|--4h6--||P
D|-------------|-------|-------------|-------||E
A|-------------|-------|-------------|-------||A
E|-------------|-------|-------------|-------||T

or this way :

e|--0-0-----0--|-------|--0-0-----0--|-------||R
B|-------2-----|--0h2--|-------2-----|--0h2--||E
G|-------------|-------|-------------|-------||P
D|-------------|-------|-------------|-------||E
A|-------------|-------|-------------|-------||A
E|-------------|-------|-------------|-------||T

Enjoy :D
Добавлено: 27.12.2015
Другие материалы по этой песне:
  • Аккорды и текст

Страница создана 10.08.2014
http://primanota.ru/nappy-roots/good-day-chords.htm
Привет, Гость.
Предлагаем пройти революционный курс по гитаре.
Подарок от PrimaNota.Ru, забирай!