PrimaNota.ru - самый крупный в мире бесплатный архив песенных текстов, аккордов, табулатур и нот


Napoleon Coste - La Romanesca - таба, видео

Регистрация Запомнить меня
Войти через:  Facebook Google Twitter Vk Yandex Mail.ru

Napoleon Coste - La Romanesca - таба, видео

Печатать
Просмотров: 403
-------------------------------------------------------------------------------
                             La Romanesca op.19b  -  Napoleon Coste
-------------------------------------------------------------------------------

Tabbed by: guitarb909 a.k.a (Dragonb010)
Email: dragonblood909@aol.com

Tuning: Standard

e|-0-1-0-1-0------------------------0---0----------------0---0-----------0---|
B|-----------3-1-1--0---0------0------0-------------1------0-----------1-----|
G|---------------2----2------2---1----------2-----2-------------2----2-------|
D|---------------2---------2--------------------2------------------2---------|
A|---------0--------------------------------0-------------------0------------|
E|----------------------0------------------------------0---------------------|

e|-0-1-0-------------------------0---0--------------0---0--------------------|
B|---------3-1-1--0----0------0----0----1--0----------0----------1-----------|
G|-------------2----2-------2---1--------------2---------------2-------------|
D|-------------2----------2--------------------0-------------2---------------|
A|-----0--------------------------------0------------------0---------2-------|
E|---------------------0--------------------------0--------------------------|

e|--1--3--1--0----0------1-3---1--0------0-------0---------------------------|
B|--------0-----3--------------0-------1------3-----3--1-0-1----0---0--------|
G|-------------------0---------------0--------4--------2----------2----------|
D|-----0-------------------0---------------------------3---------------------|
A|-----------3--------------------3------------------------------------------|
E|---------------------3--------------------0-----------------0--------------|

e|--------------1--3--1--0----0------1--3--1--0----0------0------------------|
B|--------1-----------0-----3---0----------0------1-----3---3--1--0-1--------|
G|------2----------------------------------------0------4------2-------------|
D|----2------------0--------------------0----------------------3-------------|
A|--0--------2-----------3--------------------3------------------------------|
E|---------------------------------3------------------0----------------0-----|

e|-----------------------------------5---------------------------------------|
B|--0---0-------------------5--------5---------------------------------------|
G|----2--------2--\--4---\-5---------5---------------------------------------|
D|-----------2---------------------------------------------------------------|
A|---------0---------------------0-------------------------------------------|
E|---------------------------------------------------------------------------|


| \  slide down
===============================================================================

Добавлено: 04.06.2012
Другие материалы по этой песне:
  • Аккорды и текст

Страница создана 04.06.2012
http://primanota.ru/napoleon-coste/la-romanesca-chords.htm
Привет, Гость.
Предлагаем пройти революционный курс по гитаре.
Подарок от PrimaNota.Ru, забирай!