PrimaNota.ru - самый крупный в мире бесплатный архив песенных текстов, аккордов, табулатур и нот


Naoto Ishida - Mute City - таба, видео

Регистрация Запомнить меня
Войти через:  Facebook Google Twitter Vk Yandex Mail.ru

Naoto Ishida - Mute City - таба, видео

Печатать
Просмотров: 98
----------------------------------------------------------------------------
                             Mute City – F-Zero (Brawl Version)
----------------------------------------------------------------------------
Tabbed by: Anonymous

Tuning: Standard (E,A,D,G,B,e)

e|-------------------------------------------------------------------------|
B|-------------------------------------------------------------------------|
G|-10-8-7-5-7-8-10-8-7-5-5h7h8h10-12-10-15-13-12-10-12-10-12-10-8-7--------|
D|-------------------------------------------------------------------------|
A|-------------------------------------------------------------------------|
E|-------------------------------------------------------------------------|

Repeat this once.

e|-------------------------------------------------------------------------|
B|----------------------------------------------------------------9-11-----|
G|-----------------------------------8----8-10-12---13—-8-11----11---------|
D|-7---5-7-8-10---7-8-10-12---8-10-12---10------------11------11-----------|
A|-------------------------------------------------------------------------|
E|-------------------------------------------------------------------------|

e|-----9-13---9-13-14-13-11-9-------------------------6-11-----------------|
B|-7-9------9----------------12-2------------------------------------------|
G|--------------------------------3-1---------10-11--8---------------------|
D|-----------------------------------4-3-1---------------------------------|
A|----------------------------------------4-6------6-----------------------|
E|-------------------------------------------------------------------------|

| /  slide up
| \  slide down
| h  hammer-on
| p  pull-off
| ~  vibrato
| +  harmonic
| x  Mute note
============================================================================

I didn't bother trying to tab the shredding after this loop… Sorry!

This is my first tab :D Try not to rip on me too hard if it sucks, but I think it sounds 
damn close. The only real problem I had was finding the right octaves to use...
Добавлено: 23.04.2012
Вам также может быть интересно:
Другие материалы по этой песне:
  • Аккорды и текст

Страница создана 23.04.2012
http://primanota.ru/naoto-ishida/mute-city-chords.htm
Привет, Гость.
Предлагаем пройти революционный курс по гитаре.
Подарок от PrimaNota.Ru, забирай!