PrimaNota.ru - самый крупный в мире бесплатный архив песенных текстов, аккордов, табулатур и нот


Naosol - Pretty Fruit - аккорды и текст, видео

Регистрация Запомнить меня
Войти через:  Facebook Google Twitter Vk Yandex Mail.ru

Naosol - Pretty Fruit - аккорды и текст, видео

Печатать
Просмотров: 122
Pretty Fruit
Naosol
Voici Pretty fruit, de naosol. Pour info, le solo j'ai fait que le début car j'arrive
à suivre le reste. Et les accords je n'en suis pas certains non plus. ;)


Intro: (p= pull off)

G=320033  B7=021202  C=032013

    |     G    |     B7       |   C    |

E ----3-------------3p0----------3-0----------------|
B ------3---0----0------0---0--------1--------------|
G --------0---------------3-----------------0h3-0---|
D --------------------------------------0h3---------|
A -------------2---------------3--------------------|
E --3-----------------------------------------------|

    |     G    |      B7       |

E ----3-------------3p0------------0--|
B ------3---0----0------0---0------3--|
G --------0---------------3--------0--|
D ---------------------------------2--|
A -------------2---------------3---3--|
E --3------------------------------0--|

Accord:

G6: 022033

    G                       B Bsus4 B
The zipper slid down to the small of your back

    G6
And the emotion of your offered body

 G                         B Bsus4 B
Erased your cruelty from my memory

     G6
Your dress falling down in a happy flashback

G                    B Bsus4 B
Was lighter than the skin of a tangerine

G6
Falling down on a red carpet of satin

G                     B Bsus4 B      G6
I couldn't resist the attack of your lips


     A
Tangerine

       F
Pretty fruit

                E
The tip of your nipple drew a new love line

       F
In the hollow of my hand I can't decline


     A
Tangerine

       F
Pretty fruit

           E
Flashes on lighting my body generates

              F
Illuminate my spleen but leaves me all checks mates


Solo:

                       B
E -----3---3---3---3---5-5--3-0-3-0-----3------------------|
B --3h5-3h5-3h5-3h5---------------3-5----------------------|
Добавлено: 13.05.2012
Другие материалы по этой песне:
  • Аккорды и текст

Страница создана 13.05.2012
http://primanota.ru/naosol/pretty-fruit-chords.htm
Привет, Гость.
Предлагаем пройти революционный курс по гитаре.
Подарок от PrimaNota.Ru, забирай!