PrimaNota.ru - самый крупный в мире бесплатный архив песенных текстов, аккордов, табулатур и нот


Naomi Shemer - Lu Yehi - таба, видео

Регистрация Запомнить меня
Войти через:  Facebook Google Twitter Vk Yandex Mail.ru

Naomi Shemer - Lu Yehi - таба, видео

Печатать
Просмотров: 74
Naomi Shemer - Lu Yehi

~ Voice Melody tabbed for guitar ~

Tab by Avi Yaacov
Israel, 2014


This is the song she originally wrote down to be played as a Hebrew version of "Let it 
be" and eventually
wrote new (amazing) music for it.

Verse:

e|--10-9---7-5---3-2-------0--|--2---3-3---2-2---0-0--|
B|---------------------0-3----|-----------------------|
G|----------------------------|-----------------------|
D|----------------------------|-----------------------|
A|----------------------------|-----------------------|
E|----------------------------|-----------------------|


e|-----0-2-----------------|
B|--3-------0-2-----2-3-0--|
G|-------------------------|
D|-------------------------|
A|-------------------------|
E|-------------------------|

Chorus:

e|-----0-2--|--2-3-5--|--2----7--5-3--|--2--3-2-0-2---------|
B|---3------|---------|----3----------|--------------2-3-0--|
G|----------|---------|---------------|---------------------|
D|----------|---------|---------------|---------------------|
A|----------|---------|---------------|---------------------|
E|----------|---------|---------------|---------------------|
Добавлено: 11.08.2015
Вам также может быть интересно:
Другие материалы по этой песне:
  • Аккорды и текст

Страница создана 11.08.2015
http://primanota.ru/naomi-shemer/lu-yehi-chords.htm
Привет, Гость.
Предлагаем пройти революционный курс по гитаре.
Подарок от PrimaNota.Ru, забирай!