PrimaNota.ru - самый крупный в мире бесплатный архив песенных текстов, аккордов, табулатур и нот


Naomi Punk - The Feeling - таба, видео

Регистрация Запомнить меня
Войти через:  Facebook Google Twitter Vk Yandex Mail.ru

Naomi Punk - The Feeling - таба, видео

Печатать
Просмотров: 44
-------------------------------------------------------------------------------
                             The Feeling - Naomi Punk
-------------------------------------------------------------------------------

Tuning: Standard (EADGBe)

Intro(played twice):
   F#m               E                 C#m       D
e|---------------------------------------------------------------------------|
B|--2-------2--------0-------0----------5--------7-------7--7--7/------------|
G|--2-------2--------1-------1----------6--------7-------7--7--7/------------|
D|--4-------4--------2-------2----------6--------7-------7--7--7/------------|
A|--4-------4----4---2-------2----2-----4----4---5-------5--5--5/------------|
E|--2-------2----2---0-------0----0------------------------------------------|

    G# A       E                        F#m      D
e|------------------------------------------------------------------------------|
B|-------------0-------0--------0--------2-------7-------7-------7-------7/---0-|
G|--5--6-------1-------1--------1--------2---x---7-------7-------7-------7/---0-|
D|--6--7-------2-------2--------2--------4---x---7-------7-------7-------7/---0-|
A|--6--7-------2-------2--------2--------4---x---5-------5-------5-------5/---0-|
E|--4--5-------0-------0----0---0----0---2--------------------------------------|

Verse:
   F#m                                           E
e|---------------------------------------------------|
B|---------------------------------------------------|
G|--2----2----2--2------2-----2--2------2--2---------| x3 
D|--4----4----4--4------4-----4--4------4--4-----2---|
A|--4----4----4--4------4-----4--4------4--4-----2---|
E|--2----2----2--2------2-----2--2------2--2-----0---|
   
   F#m                                           G#
e|---------------------------------------------------|
B|---------------------------------------------------|
G|--2----2----2--2------2-----2--2------2--2-----5---| 
D|--4----4----4--4------4-----4--4------4--4-----6---|
A|--4----4----4--4------4-----4--4------4--4-----6---|
E|--2----2----2--2------2-----2--2------2--2-----4---|

    A                   E  F#m          E  F#m   G#
e|---------------------------------------------------|
B|---------------------------------------------------|
G|--6----6----6--6----------2----2----------2----5---|
D|--7----7----7--7------2---4----4------2---4----6---|
A|--7----7----7--7------2---4----4------2---4----6---|
E|--5----5----5--5------0---2----2------0---2----4---|

    A                   E  F#m          E  F#m  C#m
e|---------------------------------------------------|
B|-----------------------------------------------5---|
G|--6----6----6--6----------2----2----------2----6---|
D|--7----7----7--7------2---4----4------2---4----6---|
A|--7----7----7--7------2---4----4------2---4----4---|
E|--5----5----5--5------0---2----2------0---2--------|

    D                   Bm     C#m
e|----------------------------------|
B|--7-------7------x----3-------5---|
G|--7-------7------x----4-------6---| x3
D|--7-------7------x----4-------6---|
A|--5-------5------x----2-------4---|
E|----------------------------------|

    D
e|----------------------------------|
B|--7-------7-------7-------7/---0--|
G|--7-------7-------7-------7/---0--|
D|--7-------7-------7-------7/---0--|
A|--5-------5-------5-------5/---0--|
E|----------------------------------|

Play the intro riff again four times except drag out that last D for a bit longer the fourth time you play it.

Break(second guitar strums the chords):
   Bm              A
e|----------------------------|
B|--------3--2----------------|
G|-----4-----------2----2-----| x8
D|--4-------------------------|
A|----------------------------|
E|----------------------------|

    E
e|------------------------------------------------------------------|
B|--0-------0-------0-------0-------0-------0-------0---------------|
G|--1-------1-------1-------1-------1-------1-------1---------------|
D|--2-------2-------2-------2-------2-------2-------2---------------|
A|--2-------2-------2-------2-------2-------2-------2---------------|
E|--0-------0-------0-------0-------0-------0-------0---------------|

Ending(play until the end of the song, but finish on the last E the last time):
    A           E              Bm      E          D
e|----------------------------------------------------------------|
B|--------------0------0---x---3---x---9---9------7--7--7---7-----|
G|--6---6-------1------1---x---4---x---9---9------7--7--7---7-----|
D|--7---7-------2------2---x---4---x---9---9------7--7--7---7-----|
A|--7---7-------2------2---x---2---x---7---7------5--5--5---5-----|
E|--5---5-------0------0---------------0---0-------------------0--|

************************************

| /   slide up
| \   slide down
| h   hammer-on
| p   pull-off
| ~   vibrato
| +   harmonic
| x   Mute note
| b   Bend
| pb  Pre-bend
| br  Bend release
| pbr Pre-bend release
| brb Bend release bend

************************************
Добавлено: 13.11.2015
Вам также может быть интересно:
Другие материалы по этой песне:
  • Аккорды и текст

Страница создана 13.11.2015
http://primanota.ru/naomi-punk/feeling-chords.htm
Привет, Гость.
Предлагаем пройти революционный курс по гитаре.
Подарок от PrimaNota.Ru, забирай!