PrimaNota.ru - самый крупный в мире бесплатный архив песенных текстов, аккордов, табулатур и нот


Naomi Punk - Burned Body - таба, видео

Регистрация Запомнить меня
Войти через:  Facebook Google Twitter Vk Yandex Mail.ru

Naomi Punk - Burned Body - таба, видео

Печатать
Просмотров: 35
-------------------------------------------------------------------------------
                             Burned Body - Naomi Punk
-------------------------------------------------------------------------------
Tuning: Standard (EADGBe)

Played throughout the verse:
    E      G#  A                 C                   B
e|--0---------------------------------------------------------|
B|--0------4---5--5--------5----------------------------------|
G|--1------5---6--6--------6/----9-------9br-----9---8--------|
D|--2------6---7--7--------7/----10------10------10--9--------|
A|--2------6---7--7--------7/----10------10------10--9--------|
E|--0------4---5--5--------5/----8-------8-------8---7---0----|
The last time it's played(before the pre-chorus), that C goes on for a little longer.

Played throughout the pre-chorus:
    E
e|--------------------------------------------------------------------|
B|--9------9------9------9------9------9------9------9------9---------|
G|--9------9------9------9------9------9------9------9------9---------|
D|--9------9------9------9------9------9------9------9------9---------|
A|--7------7------7------7------7------7------7------7------7---------|
E|-------------------------------------------------------0------0-----|

Played throughout the chorus (in 3/4 time signature):
     C#m        B
e|--------------------------------|
B|---5---5------4---4-------------|
G|---6---6------4---4-------------|
D|---6---6------4---4-------------|
A|---4---4------2---2-------------|
E|--------------------------------|

Then, right before the second verse starts:
     C#m        B          F#     F
e|---------------------------------------|
B|---5---5------4---4------2------1------|
G|---6---6------4---4------3------2------|
D|---6---6------4---4------4------3------|
A|---4---4------2---2------4------3------|
E|---------------------0---2------1------|

Play the verse and pre-chorus again, then the chorus is played like this:
     C#m        B
e|--------------------------------|
B|---5---5------4---4-------------|
G|---6---6------4---4-------------| x2
D|---6---6------4---4-------------| 
A|---4---4------2---2-------------|
E|--------------------------------|

     F#m          C#m                 A            F#m
e|--------------------------------|--------------------------------|
B|---10---10------5---5-----------|----------------10--10----------|
G|---11---11------6---6-----------|---6----6-------11--11----------|
D|---11---11------6---6-----------|---7----7-------11--11----------|
A|---9----9-------4---4-----------|---7----7-------9---9-----------|
E|--------------------------------|---5----5-----------------------|

     C#m        B                     F#m          C#m                 A            F#m
e|--------------------------------|--------------------------------|--------------------------------|
B|---5---5------4---4-------------|---10---10------5---5-----------|----------------10--10----------|
G|---6---6------4---4-------------|---11---11------6---6-----------|---6----6-------11--11----------|
D|---6---6------4---4-------------|---11---11------6---6-----------|---7----7-------11--11----------| x2
A|---4---4------2---2-------------|---9----9-------4---4-----------|---7----7-------9---9-----------|
E|--------------------------------|--------------------------------|---5----5-----------------------|

     C#m        B                     F#m          C#m                 A
e|--------------------------------|--------------------------------|--------------------------------|
B|---5---5------4---4-------------|---10---10------5---5-----------|--------------------------------|
G|---6---6------4---4-------------|---11---11------6---6-----------|---6----------------------------|
D|---6---6------4---4-------------|---11---11------6---6-----------|---7----------------------------|
A|---4---4------2---2-------------|---9----9-------4---4-----------|---7----------------------------|
E|--------------------------------|--------------------------------|---5----------------------------|

After a little pause, end with:
   C                   B       G
e|-----------------------------------------|
B|-----------------------------3-----------|
G|-9-------9br-----9---8-------4-----------|
D|-10------10------10--9-------5-----------|
A|-10------10------10--9-------5-----------|
E|-8-------8-------8---7---0---3-----------|

************************************

| /   slide up
| \   slide down
| h   hammer-on
| p   pull-off
| ~   vibrato
| +   harmonic
| x   Mute note
| b   Bend
| pb  Pre-bend
| br  Bend release
| pbr Pre-bend release
| brb Bend release bend

************************************
Добавлено: 13.11.2015
Вам также может быть интересно:
Другие материалы по этой песне:
  • Аккорды и текст

Страница создана 13.11.2015
http://primanota.ru/naomi-punk/burned-body-chords.htm
Привет, Гость.
Предлагаем пройти революционный курс по гитаре.
Подарок от PrimaNota.Ru, забирай!