PrimaNota.ru - самый крупный в мире бесплатный архив песенных текстов, аккордов, табулатур и нот


Nanobii - Rainbow Road - таба, видео

Регистрация Запомнить меня
Войти через:  Facebook Google Twitter Vk Yandex Mail.ru

Nanobii - Rainbow Road - таба, видео

Печатать
Просмотров: 272
Уроки эстрадного вокала в Санкт-Петербурге
-------------------------------------------------------------------------------
                             Rainbow Road - Nanobii
-------------------------------------------------------------------------------
Tabbed by: Josh
E-mail: hinerjoshua@yahoo.com

Tuning: Standard

Intro
e|------------------------|
B|------------------------|
G|---------10-------------|
D|---8-7-8----------------|
A|------------------------|
E|------------------------|

e|---------------------------------------------------------------------------|
B|-----------10----13-11-----------------------------------------------------|
G|----7-8-10----10-------7-8-10--10-8-7--------10----------------------------|
D|--------------------------------------10-7-8-------------------------------|
A|---------------------------------------------------------------------------|
E|---------------------------------------------------------------------------|

There is a piano part after this i couldn't figure out.

Chorus
e|-------------------------------------------------------------------------------|
B|-----------10----13-11-----------------------------------11----15-13----10-11--|
G|----7-8-10----10-------7-8-10--10-8-7--------10---7-8-10----10-------10--------|
D|--------------------------------------10-7-8-----------------------------------|
A|-------------------------------------------------------------------------------|
E|-------------------------------------------------------------------------------|

e|-------------------------------------------------------------------------------|
B|-------------------------------------------------------------------------------|
G|-----10-8-7--------10-------------8---5-7-8---7-8-10-14-15--10-8-7--------10---|
D|------------10-7-8------------8-3-8-8-5-7-8-8-7-8-10-14-15---------10-7-8------|
A|------------------------------8-3-6-8-3-5-6-8-5-6-8--12-13---------------------|
E|------------------------------6-1---6-------6----------------------------------|

Strum the power chords by muting and the strumming up and then muting.

The second verse of the song is different but has the same notes as the first.

Chorus 2
e|-------------------------------------------------------------------------------|
B|-----------10----13-11-----------------------------------11----15-13----10-11--|
G|----7-8-10----10-------7-8-10--10-8-7--------10---7-8-10----10-------10--------|
D|--------------------------------------10-7-8-----------------------------------|
A|-------------------------------------------------------------------------------|
E|-------------------------------------------------------------------------------|

e|-------------------------------------------------------------------------------|
B|-------------------------------------------------------------------------------|
G|-----10-8-7--------10-------------8---5-7-8---7-8-10-14-15----11-10------------|
D|------------10-7-8------------8-3-8-8-5-7-8-8-7-8-10-14-15----------10---------|
A|------------------------------8-3-6-8-3-5-6-8-5-6-8--12-13-------------8-------|
E|------------------------------6-1---6-------6----------------------------------|


************************************

| /   slide up
| \   slide down
| h   hammer-on
| p   pull-off
| ~   vibrato
| +   harmonic
| x   Mute note
| b   Bend
| pb  Pre-bend
| br  Bend release
| pbr Pre-bend release
| brb Bend release bend

************************************
Добавлено: 06.04.2016
Другие материалы по этой песне:
  • Аккорды и текст

Страница создана 06.04.2016
http://primanota.ru/nanobii/rainbow-road-chords.htm
Привет, Гость.
Предлагаем пройти революционный курс по гитаре.
Подарок от PrimaNota.Ru, забирай!