PrimaNota.ru - самый крупный в мире бесплатный архив песенных текстов, аккордов, табулатур и нот


Nano - Hysteria - таба, видео

Регистрация Запомнить меня
Войти через:  Facebook Google Twitter Vk Yandex Mail.ru

Nano - Hysteria - таба, видео

Печатать
Просмотров: 149
-------------------------------------------------------------------------------
                   Hysteria Acoustic - NANO
-------------------------------------------------------------------------------
Tabbed by: azndesserts
Tuning: EADGBe (Standard)

Tabbed from: http://www.youtube.com/watch?v=Pk3EUwBzDuw
Attempted to tab out the song by ear, it's not perfect.
Couldn't find a tab on this song and that surprised me.

Capo: 1st Fret
General Chord Progression (relative to capo): G A Bm7 A

[G]
e|--3--|
B|--3--|
G|--0--|
D|--0--|
A|--2--|
E|--3--|

[A]
e|--0--|
B|--2--|
G|--2--|
D|--2--|
A|--0--|
E|-----|

[Bm7]
e|--2--|
B|--3--|
G|--2--|
D|--4--|
A|--2--|
E|-----|

[0:00]
e|---2---0-2-----2---0-2---0-----0-2-----5-(5)------|
B|-3---3-------3---3---------3-----------3----(3)---|
G|-----0-----------0-----------2-------2-2----------| (x2)
D|-0-----------0-----------4-----4---4---4----------|
A|-0-----------0------------------------------------|
E|--------------------------------------------------|

[0:18]
e|--------------------------------------------------|
B|-----3-----------2-----------3-----------2--------|
G|-----0---0-------2---2-------2---2-------2---2----|
D|---0---0-------2---2-------4---4-------2---2------|
A|-------------0-----------2-----------0------------|
E|-3------------------------------------------------|

[0:28]
e|-----------------------------------------/10-9-------------|
B|-----3-----------2-----------3-----------------10-8--------|
G|-----0---0-------2---2-------2---2------------------11-----|
D|---0---0-------2---2-------4---4-------2------------0------|
A|-------------0-----------2-----------0---------------------|
E|-3---------------------------------------------------------|

[0:38]
e|--------------------------------------------------|
B|-----3-----------2-----------3-----------2--------|
G|-----0---0-------2---2-------2---2-------2---2----|
D|---0---0-------2---2-------4---4-------2---2------|
A|-------------0-----------2-----------0------------|
E|-3------------------------------------------------|

[0:48]
e|-----------------------------------------5--------|
B|-----3-----------2-----------3-----------2--------|
G|-----0---0-------2---2-------2---2-------2--------|
D|---0---0-------2---2-------4---4-------2----------|
A|-------------0-----------2-----------0------------|
E|-3------------------------------------------------|

[0:58]
Strumming      : { G A Bm7 A } (x3)
Strumming Outro: G A (A is strummed 5 times)

[1:30]
e|---2---0-2-----2---0-2---0-----0-2-----5-(5)------|
B|-3---3-------3---3---------3-----------3----(3)---|
G|-----0-----------0-----------2-------2-2----------|
D|-0-----------0-----------4-----4---4---4----------|
A|-0-----------0------------------------------------|
E|--------------------------------------------------|

[1:40]
e|-------------------------------------0-5-2-0------|
B|-----3-----------2-----------3-------2-2----------|
G|-----0---0-------2---2-------2---2---2------------|
D|---0---0-------2---2-------4---4-----2------------|
A|-------------0-----------2------------------------|
E|-3------------------------------------------------|

[1:50]
e|-----------------------------------------0--------|
B|-----3-----------2-----------3-----------2--------|
G|-----0---0-------2---2-------2---2-------2--------|
D|---0---0-------2---2-------4---4-------2-2--------|
A|-------------0-----------2-----------0------------|
E|-3------------------------------------------------|

[2:00]
Strumming Intro: G (G is strummed 3 times)
Strumming      : { G A Bm7 A } (x3)
Strumming Outro: G A (A is strummed 5 times but blends into solo)

[2:35]
[SOLO] (my interpretation hopefully someone else can make a better one)
e|-/10-p9---------------------------------------|
B|--------10-p8---------------------------------|
G|--------------11-9-11~--------7-h9-7----------|
D|-------------------------7-h9-----------------|
A|----------------------------------------------|
E|----------------------------------------------|

[2:40]
e|----------------------------------------------|
B|-----------------------/10-7------------------|
G|-7-p6--------------7-7------------------------|
D|------9-p7-------7----------------------------|
A|------------9-p7------------------------------|
E|----------------------------------------------|

[2:45]
e|-------------14~---------------------5-10-10-p9-----------------9-10----|
B|-15-15-15---------------15-17b-15~---7-10-------10-----------10---10----|
G|----------16-----16-h19--------------7-12----------11-p9-h11------11----|
D|-------------------------------------7-12------------------------(14)---|
A|-------------------------------------5-10-------------------------------|
E|------------------------------------------------------------------------|
[END SOLO]

[2:55]
e|--------------------------------------------------|
B|-----3-----------2-----------3-----------2--------|
G|-----0---0-------2---2-------2---2-------2---2----|
D|---0---0-------2---2-------4---4-------2---2------|
A|-------------0-----------2-----------0------------|
E|-3------------------------------------------------|

[3:05]
e|--------------------------------------------------|
B|-----3-----------2--------------------------------|
G|-----0---0-------2---2----------------------------|
D|---0---0-------2---2------------------------------|
A|-------------0-----------2------------------------|
E|-3------------------------------------------------|
(blends to strumming Bm7 then A)

[3:15]
Strumming      : G A Bm7 A 
Strumming Outro: G A

[3:30]
Outro: { G A Bm7 A } (x2) 
     : G~

************************************

| ()   optional
| /   slide up
| \   slide down
| h   hammer-on
| p   pull-off
| ~   vibrato
| +   harmonic
| x   Mute note
| b   Bend
| pb  Pre-bend
| br  Bend release
| pbr Pre-bend release
| brb Bend release bend

************************************
Добавлено: 21.10.2015
Другие материалы по этой песне:
  • Аккорды и текст

Страница создана 21.10.2015
http://primanota.ru/nano/hysteria-chords.htm
Привет, Гость.
Предлагаем пройти революционный курс по гитаре.
Подарок от PrimaNota.Ru, забирай!