PrimaNota.ru - самый крупный в мире бесплатный архив песенных текстов, аккордов, табулатур и нот


Nanada Malani - Ammawarune - таба, видео

Регистрация Запомнить меня
Войти через:  Facebook Google Twitter Vk Yandex Mail.ru

Nanada Malani - Ammawarune - таба, видео

Печатать
Просмотров: 42
                                AMMAWARUNE - NANDA MALINI
                                 TAB BY VISHWA GOPALLAWA

CHORD - Ebm 

<<<<>>>>>>

[intro/inter](reating part)


E|--------------------------
B|-----------4--------------
G|-----1--3-----3--1--3--1--
D|--1-----------------------
A|--------------------------
E|--------------------------


[chorus]



E|-----1----------------1--4----1--------1------------4--4--4--2--1--------1--------
B|--4-----4--2----2--4-------------4--2-----4--4---------------------2--4-----4--4--
G|----------------------------------------------------------------------------------
D|----------------------------------------------------------------------------------
A|----------------------------------------------------------------------------------
E|----------------------------------------------------------------------------------



E|--------------1--1---------------4--4--4--1-----------1--4------1-----------1-----------
B|--2--2--4--4--------4--4--4------------------4--2--4---------------4--2--2-----4--4--4--
G|----------------------------------------------------------------------------------------
D|----------------------------------------------------------------------------------------
A|----------------------------------------------------------------------------------------
E|----------------------------------------------------------------------------------------


[verse]


E|-----------1--2----1--4--4--4--2--1---------------1--2--1--4--4--4--
B|--2--2--4--------------------------------2--2--4--------------------
G|--------------------------------------------------------------------
D|--------------------------------------------------------------------
A|--------------------------------------------------------------------
E|--------------------------------------------------------------------



E|--1--4--4--2--1-------------1---------------------------1--1--------
B|-----------------4----2--4-----4--4------2--2--4--4--4--------4--4--
G|--------------------------------------------------------------------
D|--------------------------------------------------------------------
A|--------------------------------------------------------------------
E|--------------------------------------------------------------------


E|--4--4--4--1-----1--1--------
B|--------------4--------4--4--
G|-----------------------------
D|-----------------------------
A|-----------------------------
E|-----------------------------

Добавлено: 17.04.2016
Другие материалы по этой песне:
  • Аккорды и текст

Страница создана 17.04.2016
http://primanota.ru/nanada-malani/ammawarune-chords.htm
Привет, Гость.
Предлагаем пройти революционный курс по гитаре.
Подарок от PrimaNota.Ru, забирай!