PrimaNota.ru - самый крупный в мире бесплатный архив песенных текстов, аккордов, табулатур и нот


Nameless - She was the one - аккорды и текст, видео

Регистрация Запомнить меня
Войти через:  Facebook Google Twitter Vk Yandex Mail.ru

Nameless - She was the one - аккорды и текст, видео

Печатать
Просмотров: 47
She was the one
Nameless


x- Muting

Intro

G# A# C D#
G# A# C D#


Verse

G#                       A#
Ask right or be thought to be a loser
B                        C#
Your girlfriend will be your accuser




Chrous


G#  C#      A#     B
She was the one for you...



Solo




E---11-9-7|-11-9-7-|-11-9-7-|---------|
B--9------|9-------|9-------|9-11-9-7-|
G---------|--------|--------|---------|
Repeat
Then,

E--7-7-7-7-7-|7-7-7-7---|
B--9-9-9-9---|9-9-9-9-7-|
G------------|----------|
Do that 4 times,
then,

E--16-14----14-|
B--------16----|
G--------------|
After that go lower down the fretboard
so you do


E--19-16----16-|
B--------19----|
G--------------|

then it has a bass verse


these are the notes for bass


F#                G#
you didnt ask her out its too late
A                B
that has decide your fate...





Добавлено: 07.12.2013
Другие материалы по этой песне:
  • Аккорды и текст

Страница создана 07.12.2013
http://primanota.ru/nameless/she-was-the-one-chords.htm
Привет, Гость.
Предлагаем пройти революционный курс по гитаре.
Подарок от PrimaNota.Ru, забирай!