PrimaNota.ru - самый крупный в мире бесплатный архив песенных текстов, аккордов, табулатур и нот


Naked Raygun - Leeches - таба, видео

Регистрация Запомнить меня
Войти через:  Facebook Google Twitter Vk Yandex Mail.ru

Naked Raygun - Leeches - таба, видео

Печатать
Просмотров: 65
Key: E

Lions and tigers and bears, BEARS

bass

e|-|----------------------------|-|
B|-|----------------------------|-|
G|-|----------------------------|-|
D|-|----------------------------|-|
A|-|-4-6-4--2-4-2--0------------|-|
E|-|----------------------------|-|
     1 2 3  1 2 3  1 2 3  1 2 3

------------------------------------------------

main riff
bass
e|-|------------------------------------|-|
B|-|------------------------------------|-|
G|-|------------------------------------|-|
D|-|-6-6---6-----------6-6-6------------|-|
A|-|----------6-6---6--------6----6-6-6-|-|
E|-|------------------------------------|-|
     1 2 3 4  1 2 3 4  1 2 3 4  1 2 3 4

guitar

e|-|------------------------------------|-|
B|-|-9--------7--------9-----7----------|-|
G|-|------------------------------------|-|
D|-|------------------------------------|-|
A|-|------------------------------------|-|
E|-|------------------------------------|-|
     1 2 3 4  1 2 3 4  1 2 3 4  1 2 3 4

e|-|------------------|-|
B|-|------------------|-|
G|-|------------------|-|
D|-|-4-4--------4h6-6-|-|
A|-|------------------|-|
E|-|------------------|-|
     1 2 3 4  1 2 3 4

     G#m         A

E|-|-4---------4/5---|-|
B|-|-4---------4/5---|-| (strum loosely
G|-|-4---------4/6---|-|  kinda ska
D|-|-6---------6/7---|-|  kinda reggae
A|-|-6---------6/7---|-|  very jazzy?  )
E|-|-4---------4/5---|-|
     1 2 3 4 1 2 3 4
for the chords, focus on the higher notes.

e|-|----4h5p4----|----5p4p2----|-|
B|-|-------------|-------------|-|
G|-|-------------|-------------|-|
D|-|-------------|-------------|-|
A|-|-------------|-------------|-|
E|-|-------------|-------------|-|

------------------------------------------------

Leeches, Leeches!

bass & guitar
e|-|---------|-|
B|-|---------|-|
G|-|---------|-|
D|-|---------|-|
A|-|---0h2/7-|-|
E|-|-0-------|-|

Lions and tigers and bears, BEARS!

bass       fade ---V intro Roller Queen (on the third repeat)
e|-|----------------------------|-|
B|-|----------------------------|-|
G|-|----------------------------|-|
D|-|----------------------------|-|
A|-|-4-6-4--2-4-2--0~~~~~~~~~~~-|-|
E|-|----------------------------|-|
     1 2 3  1 2 3  1 2 3  1 2 3
Добавлено: 06.12.2015
Другие материалы по этой песне:
  • Аккорды и текст

Страница создана 06.12.2015
http://primanota.ru/naked-raygun/leeches-chords.htm
Привет, Гость.
Предлагаем пройти революционный курс по гитаре.
Подарок от PrimaNota.Ru, забирай!