PrimaNota.ru - самый крупный в мире бесплатный архив песенных текстов, аккордов, табулатур и нот


Naked Raygun - Knock Me Down - аккорды и текст, таба, видео

Регистрация Запомнить меня
Войти через:  Facebook Google Twitter Vk Yandex Mail.ru

Naked Raygun - Knock Me Down - аккорды и текст, таба, видео

Печатать
Просмотров: 131
Knock Me Down
Naked Raygun
Key: D

Intro
         D                         Dsus4 D   A
e|-|-2-2-2-2--2-2-2-2--2-2-2-2--3-3-2-2--0-0-0-0--0-0-0-0--0-0-0-0----------|-|
B|-|-3-----------------------------------2----------------------------------|-|
G|-|-2-----------------------------------2----------------------------------|-|
D|-|-0-----------------------------------2----------------------------------|-|
A|-|-------------------------------------0--------------------------2---4---|-|
E|-|------------------------------------------------------------------------|-|
     1 2 3 4  1 2 3 4  1 2 3 4  1 2 3 4  1 2 3 4  1 2 3 4  1 2 3 4  1 2 3 4  

         D                         Dsus4 D   A
e|-|-2-2-2-2--2-2-2-2--2-2-2-2--3-3-2-2--0-0-0-0--0-0-0-0--0-0-0-0----------|-|
B|-|-3-----------------------------------2----------------------------------|-|
G|-|-2-----------------------------------2----------------------------------|-|
D|-|-0-----------------------------------2----------------------------------|-|
A|-|-------------------------------------0--------------------------2---0---|-|
E|-|------------------------------------------------------------------------|-|
     1 2 3 4  1 2 3 4  1 2 3 4  1 2 3 4  1 2 3 4  1 2 3 4  1 2 3 4  1 2 3 4      

     G                                   A                 Asus4      A
e|-|-3-3-3-3--3-3-3-3--3-3-3-3--3-3-3-3--0----------------------------------|-|
B|-|-0-----------------------------------2--------------2--3-3-3-3--3-2-2-2-|-|
G|-|-0-----------------------------------2----------------------------------|-|
D|-|-0-----------------------------------2----------------------------------|-|
A|-|-2-----------------------------------0----------------------------------|-|
E|-|-3----------------------------------------------------------------------|-|
     1 2 3 4  1 2 3 4  1 2 3 4  1 2 3 4  1 2 3 4  1 2 3 4  1 2 3 4  1 2 3 4  
         
     G                                   A
e|-|-3-3-3-3--3-3-3-3--3-3-3-3--3-3-3-3--0----------------------------------|-|
B|-|-0-----------------------------------2----------------------------------|-|
G|-|-0-----------------------------------2----------------------------------|-|
D|-|-0-----------------------------------2----------------------------------|-|
A|-|-2-----------------------------------0----------------------------------|-|
E|-|-3----------------------------------------------------------------------|-|
     1 2 3 4  1 2 3 4  1 2 3 4  1 2 3 4  1 2 3 4  1 2 3 4  1 2 3 4  1 2 3 4  

Verse 1
     D                                   A
e|-|------------------------------------------------------------------------|-|
B|-|------------------------------------------------------------------------|-|  
G|-|------------------------------------------------------------------------|-|  
D|-|------------------------------------------------------------------------|-|  
A|-|-5-5-5-5--5-5-5-5--5-5-5-5--5-5-5-5-------------------------------------|-|  
E|-|-------------------------------------5-5-5-5--5-5-5-5--5-5-5-5--5-5-5-5-|-|  
     1 2 3 4  1 2 3 4  1 2 3 4  1 2 3 4  1 2 3 4  1 2 3 4  1 2 3 4  1 2 3 4      

Verse 2
         G                                   A
e|-|------------------------------------------------------------------------|-|
B|-|------------------------------------------------------------------------|-|  
G|-|------------------------------------------------------------------------|-|  
D|-|------------------------------------------------------------------------|-|  
A|-|------------------------------------------------------------------------|-|  
E|-|-3-3-3-3--3-3-3-3--3-3-3-3--3-3-3-3--5-5-5-5--5-5-5-5--5-5-5-5--5-5-5-5-|-|  
     1 2 3 4  1 2 3 4  1 2 3 4  1 2 3 4  1 2 3 4  1 2 3 4  1 2 3 4  1 2 3 4      
         
Chorus
         A            G    Em                 A            G
e|-|------------------------------------|----|------------------------------------|-|
B|-|------------------------------------|----|------------------------------------|-|    
G|-|------------------------------------|----|------------------------------------|-|    
D|-|------------------------------------|-x3-|------------------------------------|-|    
A|-|------------------------------------|----|------------------------------------|-|    
E|-|-5-5-5-5--5-5-3-3--0-0-0-0--0-0-0-0-|----|-5-5-5-5--5-5-3-3-------------------|-|    
     1 2 3 4  1 2 3 4  1 2 3 4  1 2 3 4        1 2 3 4  1 2 3 4  1 2 3 4  1 2 3 4  
         
Intro x1
Verse 1 x2
Verse 2
Verse 1 x2
Verse 2 x2
Chorus
Verse 1 x2(solo)
Verse 2 x2(solo)
Verse 1 x2
Verse 2 x2
Chorus

         
D                                  A
You glide around you're like a sailing swan
D                                A
And I worship the soil which you walk upon
G                            A
Still my heart is pierced by yer neglect
D                        A
You took my love and you threw it away, whoa oh
D                      A
I salvaged it just the other day, whoa oh oh
G                         A
You took my heart and you hogged it
     G                    A
whoa girl, I gotta get it back some way

D                                  A
You glide around you're like a sailing swan
D                            A
I worship the soil which you walk upon
G                            A
Still my heart is pierced by yer neglect
     G
whoa girl, I gotta getchu back

A         G        Em
Still you knock me down
    A        G        Em
Yuh know you knock me down
A        G        Em
Girl you knock me down
    A        G     G  (Stop)
Yuh know you knock me (and I'm hurting)

D A
D A
G A
G A
  whoa ho oh

D                              A
You glide around you're like a sailing swan
D                                A
And I worship the soil which you walk upon
G                            A
Still my heart is pierced by yer neglect
          G
whoa whoa girl, I gotta getchu back

A         G        Em
Still you knock me down
    A        G        Em
Yuh know you knock me down
A        G        Em
Girl you knock me down
    A        G     G  (Stop)
Yuh know you knock me (and I'm hurting)
Добавлено: 15.06.2016
Другие материалы по этой песне:
  • Аккорды и текст

Страница создана 25.02.2012
http://primanota.ru/naked-raygun/knock-me-down-chords.htm
Привет, Гость.
Предлагаем пройти революционный курс по гитаре.
Подарок от PrimaNota.Ru, забирай!