PrimaNota.ru - самый крупный в мире бесплатный архив песенных текстов, аккордов, табулатур и нот


Naked Raygun - Got Hurt - таба, видео

Регистрация Запомнить меня
Войти через:  Facebook Google Twitter Vk Yandex Mail.ru

Naked Raygun - Got Hurt - таба, видео

Печатать
Просмотров: 81
Уроки эстрадного вокала в Санкт-Петербурге
Got Hurt
Key: D#m

'83 Demos

'82 Morgan St. Demos version can be found as a Guitar Pro tab (its pretty much this except a step down)

Eb|-|---------------|-|
Bb|-|---------------|-|
Gb|-|---------------|-|
Db|-|-2/5\2---------|-|
Ab|-|-2/5\2---------|-|
Eb|-|-0/3\0---------|-|

Eb|-|-----10-----12---10-|----|-----10-10-12-12-12-10-|-|
Bb|-|--------------------|----|-----------------------|-|
Gb|-|-9-9----9-9----9----|-or-|-9-9-------------------|-|
Db|-|--------------------|----|-----------------------|-|
Ab|-|--------------------|----|-----------------------|-|
Eb|-|--------------------|----|-----------------------|-|

Eb|-|-----------------|------------------|-|
Bb|-|-----------------|------------------|-|
Gb|-|-----5-------7---|-9---5-------7----|-|
Db|-|-2---5---5---7---|-9---5---5---7----|-|
Ab|-|-2---3---5---5---|-7---3---5---5----|-|
Eb|-|-0-------3-------|---------3--------|-|

Eb|-|-----------------|-----------------|-|
Bb|-|-----------------|-5---8---10--10--|-|
Gb|-|-----5-------5---|-4---7---9---9---|-|
Db|-|-5---5---5---5---|-2---5---7---7---|-|
Ab|-|-5---3---5---3---|-----------------|-|
Eb|-|-3-------3-------|-----------------|-|

Power chords get 8 beats each

Verse x4
Chorus
Verse x4

Em C  G  D      Em C  G  D
So bored, right now
      G  C      G  C
and I got hurt, got hurt,
Em G Am Am
huuuuuuuuuuuuuuuuuuuuuurt
Em C  G  D  Em C  G  D  Em                C                 G  D  Em C  G  D
hooooooooo, hooooooooo, hooo whey oh whey hooo whey oh whey hooo, hooooooooo

Chorus
Verse x4

      Em   C      G  D
oh so tired right now
            Em                     C
I'm sick of chasing you around the world
                         G         D
I'm sick of chasing you around the world
      G  C      G  C
and I got hurt, got hurt
Em                 G                  Am Am
hooo whey oh whey, hooo whey oh whey, hooooooooo
Em          C           G           D
hooooooooo, hooooooooo, hooooooooo, hooooooooo
Em          C           G           D
hooooooooo, hooooooooo, hooooooooo, hooooooooo
Em          C           G           D
hooooooooooooooooooooooooooooooooooooooooooooo
Em          C           G           D
hooo whey oh whey hooo oh ho hoooooooooooooooo
G           C           G           C
Em          G           Am          Am
hooooooooooooooooooooooooooooooooooooooooooooo

Em
Добавлено: 06.12.2015
Другие материалы по этой песне:

Страница создана 06.12.2015
http://primanota.ru/naked-raygun/got-hurt-chords.htm
Привет, Гость.
Предлагаем пройти революционный курс по гитаре.
Подарок от PrimaNota.Ru, забирай!