PrimaNota.ru - самый крупный в мире бесплатный архив песенных текстов, аккордов, табулатур и нот


Naked Eyes - Promises Promises - аккорды и текст, видео

Регистрация Запомнить меня
Войти через:  Facebook Google Twitter Vk Yandex Mail.ru

Naked Eyes - Promises Promises - аккорды и текст, видео

Печатать
Просмотров: 252
Уроки эстрадного вокала в Санкт-Петербурге
Авторы: Rob Fisher, Pete Byrne

Promises Promises
Naked Eyes
SONG:   PROMISES PROMISES
ARTIST: NAKED EYES
TAB BY: DON CZARSKI
EMAIL:  GUITARZAN7@HOTMAIL.COM

                       PROMISES PROMISES
                           NAKED EYES

INTRO:

   ** MAIN RIFF ** 

   C   D11  Dm7  Em7

E -8----5----5----7--
B -8----5----6----8--
G -9----5----5----7--
D -10---5----7----9--
A -x----5----5----7--
E -x----5----x----x--

   C   D11  Dm7  Em7

E -8----5----5----7--
B -8----5----6----8--
G -9----5----5----7--
D -10---5----7----9--
A -x----5----5----7--
E -x----5----x----x--


VERSE:
(Am)  (G)    (D)
Never had a doubt       A -5-5-5-5h7--

(Em)        (Am)             sl
In the beginning        A ---5\3--

(F7M  )(Em7)(D)
Never    a  doubt       A -5-5-5-5h7--

(F7M  ) (G) (D)
Trusted too true        A -5-5-5-5h7--

(Em)        (Am)            sl
In the beginning        A --5\3--
 
 (F7M  )   (G)     (D)  
I loved you right through     A -5-5-5-5h7--


BREAK:
F7M              G6
 Arm in arm we laughed like kids
  F7M            Em7/D
At all the silly things we did


CHORUS: 
(Am)(G) (F) (Am)                (F)(Em)(Dm)
You made me promises, promises

 (Em7)  (Am)  (Em)        
Knowing I'd believe
         E -10-10\8--
         B -10-10\8--

(F7M  )            (F7M  )(Em)(Am)
Promises, promises

    (Am)              C
You knew you'd never keep


   ** MAIN RIFF **

   C   D11  Dm7  Em7

E -8----5----5----7--
B -8----5----6----8--
G -9----5----5----7--
D -10---5----7----9--
A -x----5----5----7--
E -x----5----x----x--


VERSE:
 (Am)  (Em)   (D)
Second time around       A -5-5-5-5h7--

    (Em)       (Am)          sl
I'm still believing      A --5\3--

(F7M  )   (Em)  (D) 
Words that you said      A -5-5-5-5h7--

               (F7M  )(Em)(D)
You said you'd always  be here    A -5-5-5-5h7--

(Em)       (Am)                 sl
In love forever             A --5\3--

         (Am)    (G) (D)
Still repeats in my head    A -5-5-5-5h7--


BREAK:
F7M                G6
 You can't finish what you start
   F7M             Em7/D
If this is love it breaks my heart


CHORUS: 
(Am)(G)(F7M  ) (C)                (F)(Em)(Dm)
You made me    promises, promises

    (Am)             (Em) 
You knew you'd never keep
                  E -10-10\8---8--
                  B -10-10\8---8--

(F7M  )            (F7M  )(Em)(Dm)
Promises, promises

(Em7)         C  
Why do I  believe


   ** MAIN RIFF **

   C   D11  Dm7  Em7

E -8----5----5----7--
B -8----5----6----8--
G -9----5----5----7--
D -10---5----7----9--
A -x----5----5----7--
E -x----5----x----x--

   C   D11  Dm7  Em7

E -8----5----5----7--
B -8----5----6----8--
G -9----5----5----7--
D -10---5----7----9--
A -x----5----5----7--
E -x----5----x----x--


INSTRUMENTAL FILL:

E -15-15-15--12-12-12--8-8-8-----10-10-10--10-10-10--8-8-8--
B -15-15-15--12-12-12--8-8-8-----10-10-10--10-10-10--8-8-8--
G ----------------------------------------------------------
D ----------------------------------------------------------
A ----------------------------------------------------------
E ----------------------------------------------------------

E -15-15-15--12-12-12--8-8-8-----10-10-10--10-10-10--8-8-8--
B -15-15-15--12-12-12--8-8-8-----10-10-10--10-10-10--8-8-8--
G ----------------------------------------------------------
D ----------------------------------------------------------
A ----------------------------------------------------------
E ----------------------------------------------------------


BREAK:
F7M              G6
 Arm in arm we laughed like kids
  F7M            Em7/D
At all the silly things we did

BREAK:
F7M                G6
 You can't finish what you start
   F7M             Em7/D
If this is love it breaks my heart


CHORUS: 
(Am)(G) (F)                   (F)(Em)(Dm)
You made me promises, promises
                               E --10\8--
                               B --10\8--
    (Am)               
You knew you'd never keep
                  E --10\8--
                  B --10\8--

(F7M  )            (F7M  )(Em)(Dm)
Promises, promises
                   E --10\8--
                   B --10\8--
   (Am)     (Em)
Why do I believe
             E --10\8---8--
             B --10\8---8--

CHORUS:
(F7M  )               (F7M  )(Em)(Am)   
All of your promises
                     E --10\8---8--
                     B --10\8---8--
    (Am)             
You knew you'd never keep
                     E --10\8---8--
                     B --10\8---8--
(F7M  )            
Promises, promises
                  E -10-10-10--10-10-10--8-8-8--
                  B -10-10-10--10-10-10--8-8-8--

(Dm7)       (Am)  (F7M  )
Why do I believe

E -15-15-15--12-12-12--8-8-8-----10-10-10--10-10-10--8-8-8--
B -15-15-15--12-12-12--8-8-8-----10-10-10--10-10-10--8-8-8--
G ----------------------------------------------------------
D ----------------------------------------------------------
A ----------------------------------------------------------
E ----------------------------------------------------------

Am       F7M                        Am       F7M    Promises                            Promises

E -15-15-15--12-12-12--8-8-8-----10-10-10--10-10-10--8-8-8--
B -15-15-15--12-12-12--8-8-8-----10-10-10--10-10-10--8-8-8--
G ----------------------------------------------------------
D ----------------------------------------------------------
A ----------------------------------------------------------
E ----------------------------------------------------------

Am       F7M                        Am       F7M    Promises                            Promises

E -15-15-15--12-12-12--8-8-8-----10-10-10--10-10-10--8-8-8--
B -15-15-15--12-12-12--8-8-8-----10-10-10--10-10-10--8-8-8--
G ----------------------------------------------------------
D ----------------------------------------------------------
A ----------------------------------------------------------
E ----------------------------------------------------------

Am       F7M                        Am       F7M    Promises                            Promises

E -15-15-15--12-12-12--8-8-8-----10-10-10--10-10-10--8-8-8--
B -15-15-15--12-12-12--8-8-8-----10-10-10--10-10-10--8-8-8--
G ----------------------------------------------------------
D ----------------------------------------------------------
A ----------------------------------------------------------
E ----------------------------------------------------------


*** CHORDS USED ***

Em7/D    F7M     G6

E -12-   -0-    -0-
B -12-   -1-    -3-
G -12-   -2-    -4-
D -12-   -3-    -5-
A -x--   -x-    -x-
E -x--   -x-    -x-

NOTE: Special thanks to Morrisman Smith
Добавлено: 14.08.2015
Другие материалы по этой песне:
  • Аккорды и текст

Страница создана 18.07.2012
http://primanota.ru/naked-eyes/promises-promises-chords.htm
Привет, Гость.
Предлагаем пройти революционный курс по гитаре.
Подарок от PrimaNota.Ru, забирай!