PrimaNota.ru - самый крупный в мире бесплатный архив песенных текстов, аккордов, табулатур и нот


Naive New Beaters - Dual Income No Kids - бас-таба, видео

Регистрация Запомнить меня
Войти через:  Facebook Google Twitter Vk Yandex Mail.ru

Naive New Beaters - Dual Income No Kids - бас-таба, видео

Печатать
Просмотров: 147
Song : Dual Income No Kids
Artist : Naive New Beaters
Album : Wallace

Verse : 
" Dual Income No Kids... "
G |----------------------------------------------|
D |-2/-2--2-2---4/-4--4-4------------------------|
A |------------------------4/-4--4-4---2/-2--2-2-| x3
E |----------------------------------------------|
( Follow the guitar )
G |-----------------------------------------------|
D |-2-22-2-2-2--4-44-4-4-4------------------------|
A |------------------------4-44-4-4-4--2-22-2-2-2-| x1
E |-----------------------------------------------|
Chorus :
" Baby, be my hon'.. "
G |-------------------------------------|
D |-22222222-------------------66666666-|
A |----------22222222-44444444----------| x3
E |-------------------------------------|

Verse 2 : 
" Where are you at now ?.. "
G |----------------------------------------------|
D |-2/-2--2-2---4/-4--4-4------------------------|
A |------------------------4/-4--4-4---2/-2--2-2-| x4
E |----------------------------------------------|
( Follow the guitar )
G |-----------------------------------------------|
D |-2-22-2-2-2--4-44-4-4-4------------------------|
A |------------------------4-44-4-4-4--2-22-2-2-2-| x1
E |-----------------------------------------------|

Chorus :
" Baby, be my hon'.. "
G |-------------------------------------|
D |-22222222-------------------66666666-|
A |----------22222222-44444444----------| x3
E |-------------------------------------|

Outro :

" Just let me be yours.. "
G |-------------------------------------|
D |-22222222-------------------66666666-|
A |----------22222222-44444444----------| x4
E |-------------------------------------|
Добавлено: 22.09.2013
Другие материалы по этой песне:

Страница создана 07.07.2013
http://primanota.ru/naive-new-beaters/dual-income-no-kids-chords.htm
Привет, Гость.
Предлагаем пройти революционный курс по гитаре.
Подарок от PrimaNota.Ru, забирай!