PrimaNota.ru - самый крупный в мире бесплатный архив песенных текстов, аккордов, табулатур и нот


Nailed - Son - таба, видео

Регистрация Запомнить меня
Войти через:  Facebook Google Twitter Vk Yandex Mail.ru

Nailed - Son - таба, видео

Печатать
Просмотров: 119
		   ================================================================================
         Title : Son
        Artist : Nailed
         Album : All Washed Up
Transcribed by : Zephaniah@cstone.net
================================================================================
written by Bolliadn Haoglin
Nailed Music SESAC copyright 1996
Rugged Records


  intro and chorus riff
E|--------------------------------|-----------------------------------||-
B|--------------------------------|-----------------------------------||-
G|--------------------------------|-----------------------------------||-
D|--5--6--5--3--3--0--5--6--5--3--|--5--6--5--3--3--0--0--0--0--0-----||-
A|--5--6--5--3--3--0--5--6--5--3--|--5--6--5--3--3--0--0--0--0--0-----||-
D|--5--6--5--3--3--0--5--6--5--3--|--5--6--5--3--3--0--0--0--0--0-----||-


                                            

  verse riff
E|---------------|--------------------|------------------|--------------
B|---------------|--------------------|------------------|--------------
G|---------------|--------------------|--------2p1-------|----------2p1-
D|--0--0--0--0/6-|--0--0--0--0--0--1--|-------------2h4--|--------------
A|--0--0--0--0/6-|--0--0--0--0--0--1--|--0--0------------|--0----0------
D|--0--0--0--0/6-|--0--0--0--0--0--1--|--0--0------------|--0----0------

the last is just a Dmajor chord arpeggio.  The chord right before the solo is an Eb5.



            the solo isn't exactly right but its close enough for to figure out the rest   
E|-------||-------------------------10----------------------10---------
B|-------||--10---------------------13---13----13-----------10---------
G|-------||--12b14---12b14----12r-------------------12b14-------12b14--
D|--2p0--||------------------------------------------------------------
A|-------||------------------------------------------------------------
D|-------||------------------------------------------------------------





E|-----10---10-----------------------------------------------------------
B|-----10-------13--10------------------------------13b15----13r---------
G|----------------------12--10----------------------------------------10-
D|------------------------------12--10--12--10--12-----------------------
A|-----------------------------------------------------------------------
D|-----------------------------------------------------------------------




  there are a few notes missing at this spot.
E|----------|--------------------------------------------------*|-
B|--13b15---|-------13b15----13---10---------------------------*|-
G|----------|-------------------------12---12p10---------------*|-
D|----------|-------------------------------------12-----------*|-
A|----------|--------------------------------------------------*|-
D|----------|--------------------------------------------------*|-

     
Добавлено: 08.08.2013
Вам также может быть интересно:
Другие материалы по этой песне:
  • Аккорды и текст

Страница создана 08.08.2013
http://primanota.ru/nailed/son-chords.htm
Привет, Гость.
Предлагаем пройти революционный курс по гитаре.
Подарок от PrimaNota.Ru, забирай!