PrimaNota.ru - самый крупный в мире бесплатный архив песенных текстов, аккордов, табулатур и нот


Nailed - Drowning - таба, видео

Регистрация Запомнить меня
Войти через:  Facebook Google Twitter Vk Yandex Mail.ru

Nailed - Drowning - таба, видео

Печатать
Просмотров: 107
		   ================================================================================
         Title : Drowning
        Artist : Nailed
         Album : All  Washed Up
Transcribed by : Zephaniah@cstone.net
================================================================================
Nailed Music SESAC copyright 1996
Rugged Records

The opening chord is a D5               the verse is mainly bass. A Dm chord works well. 
the intro (I think this is right)       riff at the end of the verse.  This is the chorus

E-------------------------------------||--------------------------|--------------
B-----------------------------8-------||--------------------------|--------------
G-x-x-x-x-7-7p5-7-7p5-7-7-5-7---7-5-7-||--------------------------|--------------
D-------------------------------------||-6-5-3-3-0-0-0-0----------|--0-0-0-0-0-0-
A-------------------------------------||-6-5-3-3-0-0-0-0----------|--0-0-0-0-0-0-
D-------------------------------------||-6-5-3-3-0-0-0-0----------|--0-0-0-0-0-0-

E|-----|---------------|-----------------|-------|-----------------||---
B|-----|---------------|-----------------|-------|-----------------||---
G|-----|---------------|-----------------|-------|-------------5-7-||---
D|-0-0-|-6-5-3-0-0-0-0-|-0-0-0-0-0-0-0-0-|-6-5-3-|-3-3-5-5-6-6-----||-3-
A|-0-0-|-6-5-3-0-0-0-0-|-0-0-0-0-0-0-0-0-|-6-5-3-|-3-3-5-5-6-6-----||-3-
D|-0-0-|-6-5-3-0-0-0-0-|-0-0-0-0-0-0-0-0-|-6-5-3-|-3-3-5-5-6-6-----||-3-

the chords during the solo.
E|-------------------|-
B|-------------------|-
G|-------------------|-
D|-3-5-5-6-6-3-3-5-6-|-
A|-3-5-5-6-6-3-3-5-6-|-
D|-3-5-5-6-6-3-3-5-6-|-

     
Добавлено: 03.09.2013
Вам также может быть интересно:
Другие материалы по этой песне:
  • Аккорды и текст

Страница создана 03.09.2013
http://primanota.ru/nailed/drowning-chords.htm
Привет, Гость.
Предлагаем пройти революционный курс по гитаре.
Подарок от PrimaNota.Ru, забирай!