PrimaNota.ru - самый крупный в мире бесплатный архив песенных текстов, аккордов, табулатур и нот


Naijd - Sometimes The Fairy - таба, видео

Регистрация Запомнить меня
Войти через:  Facebook Google Twitter Vk Yandex Mail.ru

Naijd - Sometimes The Fairy - таба, видео

Печатать
Просмотров: 78
Artist: Naijd
Title: Sometimes the fairy tales with
happy endings reach my side of the mirror.
Album: subversive television (track 03)
Music: Naijd
Words: Jepe
Version: original

This tab includes the rhythems.
Tune the guitar down to D


Vers (play it with wahwah on the D string)
G  F  Eb D            F = dafcgd
G  F  Eb D                ooooo3
F  D  F  D
G  F  Eb D


Chorus
F5  D5  F5  D5       F5 = dafcgd
G5  F5  Eb5 D5            ooo553


The little part before the chorus.
Play it two times, but the last time you let the chord ring.
.|1...2...3...4...|1...2...3...4...|
d|----------------|----------------|
a|----------------|----------------|
f|----------------|----------------|
c|7-7-7-5---5-5-5-|3-3-3-2---2-2-2-|
g|----------------|----------------|
d|5-5-5-3---3-3-3-|1-1-1-0---0-0-0-|


this is the part after the first chorus
.|1...2...3...4...|1...2...3...4...|
d|----------------|----------------|
a|----------------|----------------|
f|----------------|----------------|
c|----------------|--------2-------|
g|2-2---2-3p2-2-3p|2-2-3---0---2---|
d|0-3-------------|-----------0----|

.|1...2...3...4...|1...2...3...4...|
d|----------------|----------------|
a|----------------|----------------|
f|----------------|----------------|
c|----------------|--------2-------|
g|2-2---2-2---2-3p|2-2-3---0-------|
d|0-3---0-3-------|----------------|

.|1...2...3...4...|1...2...3...4...|
d|----------------|----------------|
a|----------------|----------------|
f|----------------|----------------|
c|----------------|--------2-------|
g|2-2---2-3p2-2-3p|2-2-3---0---2---|
d|0-3-------------|-----------0----|

.|1...2...3...4...|1...2...3...4...|
d|----------------|----------------|
a|----------------|----------------|
f|----------------|----------------|
c|----------------|----2---2-------|
g|2-2---2-2---2-3-|--2-3---0-------|
d|0-3---0-3---0-3-|--0-------------|

(repeat everything after this once)
.|1...2...3...4...|1...2...3...4...|
d|----------------|----------------|
a|----------------|----------------|
f|----------------|----------------|
c|----------------|----------------|
g|----------------|----------------|
d|0x0x0x3---0x0x--|--0x0x0x3-0x1---|

.|1...2...3...4...|1...2...3...4...|
d|----------------|----------------|
a|----------------|----------------|
f|----------------|----------------|
c|----------------|----------------|
g|----------------|----------------|
d|0x0x0x3---0x0x--|--0x0x000x000x00|


This is the slide part in the verse. Play it with an ebow.
F  A# A  D           F = dafcgd
D  D  D  A               o8oooo


This is the slide part in the chorus. Play it with an ebow.
F  D5 F  D           F = dafcgd
G  F5 Eb D               o8oooo


x = muted
p = pull off


This is my own work.
jesper wallgren
     
Добавлено: 19.09.2013
Другие материалы по этой песне:
  • Аккорды и текст

Страница создана 19.09.2013
http://primanota.ru/naijd/sometimes-the-fairy-chords.htm
Привет, Гость.
Предлагаем пройти революционный курс по гитаре.
Подарок от PrimaNota.Ru, забирай!