PrimaNota.ru - самый крупный в мире бесплатный архив песенных текстов, аккордов, табулатур и нот


Naif - Katakan Iya - аккорды и текст, видео

Регистрация Запомнить меня
Войти через:  Facebook Google Twitter Vk Yandex Mail.ru

Naif - Katakan Iya - аккорды и текст, видео

Печатать
Просмотров: 72
Уроки эстрадного вокала в Санкт-Петербурге
Katakan Iya
Naif
-------------------------------------------------------------------------------
                             Katakan Iya - Naif
-------------------------------------------------------------------------------
Tabbed by: Teguh Sanjaya
E-mail: sanjaya02111992@gmail.com

Tuning: Standard

Intro :

  F#m    C#Aug   A      Bsus2    D
e|2--2-----------------------------2-7-10------------------------------------|
B|--2----6--6----5--5---4--4-----3-3-5-10------------------------------------|
G|-2-------6-------6------6-------2------------------------------------------|
D|4-------7-------7------7-------0--0-0--0-----------------------------------|
A|-------8-------7------6----------------------------------------------------|
E|---------------------------------------------------------------------------|

  F#m    C#Aug   A      Bsus4    D
e|2--2-----------------------------2/7-10-14---------------------------------|
B|--2----6--6----5--5---4--4-----3-3/5-10-15---------------------------------|
G|-2-------6-------6------6-------2------------------------------------------|
D|4-------7-------7------7-------0----0--0--0--------------------------------|
A|-------8-------7------6----------------------------------------------------|
E|---------------------------------------------------------------------------|


A           F#m7M         Bm     Esus4 E
Semakin engkau jauh, semakin kuingin ..... 
A            F#m     Bm    A    E    
mendekati dirimu, meski kau tak pe du li,,




  F#m    C#Aug   A      Bsus4    D
e|2--2-----------------------------2/7-10-14---------------------------------|
B|--2----6--6----5--5---4--4-----3-3/5-10-15---------------------------------|
G|-2-------6-------6------6-------2------------------------------------------|
D|4-------7-------7------7-------0----0--0--0--------------------------------|
A|-------8-------7------6----------------------------------------------------|
E|---------------------------------------------------------------------------|

A        F#m7M       Bm   Esus4 E
Disetiap langkahmu, disitu ku ada
A           F#m     Bm     Esus4 E     F#m C#Aug A Bsus2 D
Takkah kau merasa, kesungguhan di dalam jiwa.................ku


Reff

A         D#7/F#  Bm D
Terpuji diri-Mu bila
Dm          A       Bsus2  E
kupalingkan hatimu darinya
A        D#7/F#   Bm D
semesta jadi saksinya
Dm          A       Bsus2 E 
aku yang pantas menjadi milikmu



  F#m    C#Aug   A      Bsus2    D
e|2--2-----------------------------2-7-10------------------------------------|
B|--2----6--6----5--5---4--4-----3-3-5-10------------------------------------|
G|-2-------6-------6------6-------2------------------------------------------|
D|4-------7-------7------7-------0--0-0--0-----------------------------------|
A|-------8-------7------6----------------------------------------------------|
E|---------------------------------------------------------------------------|

  F#m    C#Aug   A      Bsus4    D
e|2--2-----------------------------2/7-10-14---------------------------------|
B|--2----6--6----5--5---4--4-----3-3/5-10-15---------------------------------|
G|-2-------6-------6------6-------2------------------------------------------|
D|4-------7-------7------7-------0----0--0--0--------------------------------|
A|-------8-------7------6----------------------------------------------------|
E|---------------------------------------------------------------------------|



SOLO GUITAR


e|-----------------------7---------------------------------------------------|
B|--------2h5/6~--7--10----10-9~--9-10-12-14----10-9-9-----------------------|
G|-----2h4--------7--11--------------------------------9-10~~~---------------|
D|--2h4------------7---7-----------------------------------------------------|
A|---------------------------------------------------------------------------|
E|---------------------------------------------------------------------------|

e|---------7-----------------------------------------------------------------|
B|--7--10----10-9~~~-9-10-12-14----------------------------------------------|
G|--7--11--------------------------------------------------------------------|
D|---7---7-------------------------------------------------------------------|
A|---------------------------------------------------------------------------|
E|---------------------------------------------------------------------------|



| /   slide up
| \   slide down
| h   hammer-on
| p   pull-off
| ~   vibrato
| +   harmonic
| x   Mute note
| b   Bend
| pb  Pre-bend
| br  Bend release
| pbr Pre-bend release
| brb Bend release bend

************************************
Добавлено: 04.07.2015
Другие материалы по этой песне:
  • Аккорды и текст

Страница создана 04.07.2015
http://primanota.ru/naif/katakan-iya-chords.htm
Привет, Гость.
Предлагаем пройти революционный курс по гитаре.
Подарок от PrimaNota.Ru, забирай!