PrimaNota.ru - самый крупный в мире бесплатный архив песенных текстов, аккордов, табулатур и нот


Nai Harvest - Hold Open My Head - таба, видео

Регистрация Запомнить меня
Войти через:  Facebook Google Twitter Vk Yandex Mail.ru

Nai Harvest - Hold Open My Head - таба, видео

Печатать
Просмотров: 70
-------------------------------------------------------------------------------
                             Hold Open My Head - Nai Harvest
-------------------------------------------------------------------------------
Tabbed by: aaarons

Tuning: Standard

CAPO 2


Verse

e|--------------------------------------------------------------------------------|
B|-----3--------3-----3~---3~--------------3-------3------------------------------|
G|-4~----4--------4---4~---4~---------4~-----4-------4----4^-4-4^-4-4^------------| 
D|-5~-----------------0~---0~---------5~------------------------------------------|   x4
A|-3~--------5--------5~---5~---------3~--------5---------------------------------|
E|--------------------5~---5~-----------------------------------------------------|

Chorus

e|--3-3-3-3-3-3--x--0-0-0----x-x-x---0-0-0-0-0------------------------------------|
B|--3-3-3-3-3-3--x--0-0-0----x-x-x---0-0-0-0-0------------------------------------|
G|--4-4-4-4-4-4--x--4-4-4----x-x-x---4-4-4-4-4------------------------------------|
D|--5-5-5-5-5-5--x--5-5-5----x-x-x---5-5-5-5-5--5-/-7-7-7---5-5-4-4---------------|   x2
A|--5-5-5-5-5-5--x--3-3-3----x-x-x---3-3-2-2-2--5-/-7-7-7---3-3-2-2---------------|
E|--3-3-3-3-3-3--x-----------x-x-x--------------3-/-5-5-5-------------------------|
                                                            . . . .
Bridge 1

e|--------------------------------------------------------------------------------|
B|--------------------------------------------------------------------------------|
G|----------------------4-4-4--x--4-4-4--x----------------------------------------|
D|--5-5-5--x--5-5-5--x--5-5-5--x--5-5-5--x----------------------------------------|   x2
A|--5-5-5--x--5-5-5--x--3-3-3--x--2-2-2--x----------------------------------------|
E|--3-3-3--x--3-3-3--x------------------------------------------------------------|
    . .       . .       . .       . .
e|--------------------------------------------------------------------------------|
B|--------------------------------------------------------------------------------|
G|--4-4-4-4-4-4-4-4-/-9-9-9-9--7-7-7-7--------------------------------------------|
D|--5-5-5-5-5-5-5-5-/-9-9-9-9--7-7-7-7--------------------------------------------|   x4
A|--3-3-3-3-3-3-3-3-/-7-7-7-7--5-5-5-5--------------------------------------------|
E|--------------------------------------------------------------------------------|

Verse

Chorus

Bridge 2

e|--0-0-0-0-0-0-0-0--/--0--0--0--0--0--0--0--0------------------------------------|
B|--3-3-3-3-3-3-3-3--/--8--8--8--8--8--8--8--8------------------------------------|
G|--4-4-4-4-4-4-4-4--/--9--9--9--9--9--9--9--9------------------------------------|
D|--5-5-5-5-5-5-5-5--/--10-10-10-10-10-10-10-10-----------------------------------|   x2
A|--5-5-5-5-5-5-5-5--/--10-10-10-10-10-10-10-10-----------------------------------|
E|--x-x-x-x-x-x-x-x--/--x--x--x--x--x--x--x--x------------------------------------|

Solo

e|--3-3-3-2-2-2-0-0-0-------------------------------------------------------------|
B|--------------------3-3-3-5-3---------------------------------------------------|
G|------------------------------4-4-4-4-4-4-4-4-4-4-4-4-4-4-4-4--2h4-4-4-4-4-4-4--|
D|--------------------------------------------------------------------------------|
A|--------------------------------------------------------------------------------|
E|--------------------------------------------------------------------------------|

e|--------------------------------------------------------------------------------|
B|--------------------------------------------------------------------------------|
G|--2h4-4-4-4-4-4-4--2h4-4-4-4-4-4-4--5-5-5-4-4-4-2p0~----------------------------|
D|--------------------------------------------------------------------------------|
A|--------------------------------------------------------------------------------|
E|--------------------------------------------------------------------------------|


************************************

| /   slide up
| \   slide down
| h   hammer-on
| p   pull-off
| ~   vibrato
| +   harmonic
| x   Mute note
| b   Bend
| pb  Pre-bend
| br  Bend release
| pbr Pre-bend release
| brb Bend release bend

************************************
Добавлено: 05.12.2015
Другие материалы по этой песне:
  • Аккорды и текст

Страница создана 05.12.2015
http://primanota.ru/nai-harvest/hold-open-my-head-chords.htm
Привет, Гость.
Предлагаем пройти революционный курс по гитаре.
Подарок от PrimaNota.Ru, забирай!