PrimaNota.ru - самый крупный в мире бесплатный архив песенных текстов, аккордов, табулатур и нот


Nai Harvest - Buttercups - таба, видео

Регистрация Запомнить меня
Войти через:  Facebook Google Twitter Vk Yandex Mail.ru

Nai Harvest - Buttercups - таба, видео

Печатать
Просмотров: 83
-------------------------------------------------------------------------------
                             Buttercups - Nai Harvest
-------------------------------------------------------------------------------
Tabbed by: Natty Morris
E-mail:Nathaniel.morris@hotmail.com

Tuning: standard

capo 2nd (tab is not relative to the capo!:L) 

e|---------------------------------------------------------------------------|
B|--x---x----x---x------x---x---x---x---x------------------------------------|
G|--13--13---11--11-----11--11--11--11--11-----------------------------------|
D|--0---0----0---0------13--13--13--13--13-----------------------------------|
A|---------------------------------------------------------------------------|
E|---------------------------------------------------------------------------|

e|---------------------------------------------------------------------------|
B|--x---x----x---x------12--12--12--12--12-----------------------------------|
G|--13--13---11--11-----11--11--11--11--11-----------------------------------|
D|--0---0----0---0------0---0---0---0---0------------------------------------|
A|---------------------------------------------------------------------------|
E|---------------------------------------------------------------------------|

e|---------------------------------------------------------------------------|
B|--x---x----x---x------x---x---x---x---x-------0---0------------------------|
G|--13--13---11--11-----11--11--11--11--11-----2/4--4------------------------|
D|--0---0----0---0------13--13--13--13--13------0---6------------------------|
A|---------------------------------------------------------------------------|
E|---------------------------------------------------------------------------|


************************************

| /   slide up
| \   slide down
| h   hammer-on
| p   pull-off
| ~   vibrato
| +   harmonic
| x   Mute note
| b   Bend
| pb  Pre-bend
| br  Bend release
| pbr Pre-bend release
| brb Bend release bend

************************************
Добавлено: 20.10.2014
Другие материалы по этой песне:
  • Аккорды и текст

Страница создана 20.10.2014
http://primanota.ru/nai-harvest/buttercups-chords.htm
Привет, Гость.
Предлагаем пройти революционный курс по гитаре.
Подарок от PrimaNota.Ru, забирай!