PrimaNota.ru - самый крупный в мире бесплатный архив песенных текстов, аккордов, табулатур и нот


Nadia Reid - Call The Days - аккорды и текст, видео

Регистрация Запомнить меня
Войти через:  Facebook Google Twitter Vk Yandex Mail.ru

Nadia Reid - Call The Days - аккорды и текст, видео

Печатать
Просмотров: 32
Call The Days
Nadia Reid
-------------------------------------------------------------------------------
                             CALL THE DAYS - Nadia Reid
-------------------------------------------------------------------------------
Tabbed by: bengtaaron

Tuning: Open D (DADF#AD)



In Open D tuning, this song mostly uses the chords D (000000) and a voicing of G (555500). You can
play (5555xx) if the first G voicing is too difficult. The riffs and bass melodies are the same for each 
verse, but I've only tabbed them out for the first one.


(Intro)

D |-----------0-------------0------------x------x------x------x------0----------0--|
A |-----------0-------------0------------x------x------x------x------0----------0--|
F#|-----------0-------------0------------x------x------x------x------0----------0--|
D |-----------0-------------0------------x------x------x------x------0----------0--|
A |--0h2-0----0----0h2-0----0----0h2-0-9----9\7----7\5----5\4----4\2-------2p0--0--|
D |--------0--0----------0--0---------------------------------------------===---0--|

D
I have heard the mother's tongue
She said, baby don't you come undone

D |--(0)--(0)--(0)--(0)------0--|
A |--(0)--(0)--(0)--(0)------0--|
F#|--(0)--(0)--(0)--(0)------0--|
D |--(0)--(0)--(0)--(0)------0--|
A |---9----7----5----4----0--0--|
D |--------------------------0--|

I am so far from my home

D |--(0)--(0)--(0)--(0)------0--|
A |--(0)--(0)--(0)--(0)------0--|
F#|--(0)--(0)--(0)--(0)------0--|
D |--(0)--(0)--(0)--(0)------0--|
A |---9----7----5----4-------0--|
D |-----------------------0--0--|

Heaven would not hear my call


D   
I am digging my own grave
Chasing shit beneath the haze
I was so sure that he would stay
And would love me anyway 

G                 D
I was happy on my own
G                                   D
I would call the days as they were known
G                           D
In the guilt that I have I found
G                              D
You know the one that sticks around 
   

D |--(0)--(0)--(0)--(0)------0--|
A |--(0)--(0)--(0)--(0)------0--|
F#|--(0)--(0)--(0)--(0)------0--|
D |--(0)--(0)--(0)--(0)------0--|
A |---9----7----5----4----0--0--|
D |--------------------------0--|

I was so sure that I would go 

D |--(0)--(0)--(0)--(0)------0--|
A |--(0)--(0)--(0)--(0)------0--|
F#|--(0)--(0)--(0)--(0)------0--|
D |--(0)--(0)--(0)--(0)------0--|
A |---9----7----5----4-------0--|
D |-----------------------0--0--|

That I'd already sunk the boat


D |-----------0-------------0------------x------x------x------x------0----------0--|
A |-----------0-------------0------------x------x------x------x------0----------0--|
F#|-----------0-------------0------------x------x------x------x------0----------0--|
D |-----------0-------------0------------x------x------x------x------0----------0--|
A |--0h2-0----0----0h2-0----0----0h2-0-9----9\7----7\5----5\4----4\2-------2p0--0--|
D |--------0--0----------0--0---------------------------------------------===---0--|

D   
I threw out my winter coat
I cut the sleeves off all I'd known
I was so sure that he would stay
And would love me anyway 

G                  D   
I was happy on my own
G                                   D
I would call the days as they were known
G                            D
In the guilt that I have I found
G                              D
You know the one that sticks around


D |--(0)--(0)--(0)--(0)------0--|
A |--(0)--(0)--(0)--(0)------0--|
F#|--(0)--(0)--(0)--(0)------0--|
D |--(0)--(0)--(0)--(0)------0--|
A |---9----7----5----4----0--0--|
D |--------------------------0--|

I was so sure that he would stay

D |--(0)--(0)--(0)--(0)------0--|
A |--(0)--(0)--(0)--(0)------0--|
F#|--(0)--(0)--(0)--(0)------0--|
D |--(0)--(0)--(0)--(0)------0--|
A |---9----7----5----4-------0--|
D |-----------------------0--0--|

And would love me anyway


D |-----------0-------------0------------x------x------x------x------0-----------0--|
A |-----------0-------------0------------x------x------x------x------0----------0---|
F#|-----------0-------------0------------x------x------x------x------0---------0----|
D |-----------0-------------0------------x------x------x------x------0--------0-----|
A |--0h2-0----0----0h2-0----0----0h2-0-9----9\7----7\5----5\4----4\2---------0------|
D |--------0--0----------0--0---------------------------------------------=-0-------|
Добавлено: 23.02.2016
Другие материалы по этой песне:
  • Аккорды и текст

Страница создана 23.02.2016
http://primanota.ru/nadia-reid/call-days-chords.htm
Привет, Гость.
Предлагаем пройти революционный курс по гитаре.
Подарок от PrimaNota.Ru, забирай!