PrimaNota.ru - самый крупный в мире бесплатный архив песенных текстов, аккордов, табулатур и нот


Nadeah - Song I Just Wrote - таба, видео

Регистрация Запомнить меня
Войти через:  Facebook Google Twitter Vk Yandex Mail.ru

Nadeah - Song I Just Wrote - таба, видео

Печатать
Просмотров: 154
Song I just wrote by Nadeah

TAB

Intro
e||----------------------------------||
B||---1---1---1---1---0---0---0---0--||
G||-----2-------2-------2-------2----||
D||-3-------3-------3-------3--------||x2
A||----------------------------------||
E||----------------------------------||

Got me a prescription for perfect living
But I lost it on the breeze
So I ran down to the crossroads winter stinging
And I tried my very best just to breathe


   F7+                               C
e||----------------------------------|----------------------------------|
B||---1---1---1---1---1---1---1---1--|---1---1---1---1---1---1---1---1--|
G||-----2-------2-------2-------2----|-----0-------0-------0-------0----|
D||-3-------3-------3-------3--------|----------------------------------|
A||----------------------------------|-3-------3-------3-------3--------|
E||----------------------------------|----------------------------------|

Dm                                Bb
----------------------------------|----------------------------------||
---3---3---3---3---3---3---3---3--|---3---3---3---3---3---3---3---3--||
-----2-------2-------2-------2----|-----3-------3-------3-------3----||
-0-------0-------0-------0--------|-3-------3-------3-------3--------||x2
----------------------------------|----------------------------------||
----------------------------------|----------------------------------||

Chorus:

Now I know it's not the way
And that it was meant to be
But right now I don't think I can see

  Dm                                 Bb
e|----------------------------------|----------------------------------|
B|---3---3---3---3---3---3---3---3--|---3---3---3---3---3---3---3---3--|
G|-----2-------2-------2-------2----|-----3-------3-------3-------3----|
D|-0-------0-------0-------0--------|-3-------3-------3-------3--------|
A|----------------------------------|----------------------------------|
E|----------------------------------|----------------------------------|

F7+                                C 
----------------------------------|----------------------------------|
---1---1---1---1---1---1---1---1--|---1---1---1---1---1---1---1---1--|
-----2-------2-------2-------2----|-----0-------0-------0-------0----|
-3-------3-------3-------3--------|----------------------------------|
----------------------------------|-3-------3-------3-------3--------|
----------------------------------|----------------------------------|

So would you lend me your eyes for a little while?
And so I might remember how to smile

  F7+                                Bb
e|----------------------------------|----------------------------------|
B|---1---1---1---1---1---1---1---1--|---3---3---3---3---3---3---3---3--|
G|-----2-------2-------2-------2----|-----3-------3-------3-------3----|
D|-3-------3-------3-------3--------|-3-------3-------3-------3--------|
A|----------------------------------|----------------------------------|
E|----------------------------------|----------------------------------|

F7+              C               F7+     
------------------------------------------------------------------|
---1---1---1---1---1---1---1---1---1---1---1---1---1---1---1---2--|
-----2-------2-------0-------0-------2-------2-------2-------2----|
-3-------3-----------------------3-------3-------3-------3--------|
-----------------3-------3----------------------------------------|
------------------------------------------------------------------|

Got me a friend named Peg, she taught me knitting 
Gonna knit me a new man 
And even though, I don't know his perfect fitting 
Well I'm sure he'll understand 


Chorus


Does everybody feel like this sometimes?
Where every word they say, sounds like recycled rhymes
Contrived and out of date, it's nothing new
But it's all I got, to say to you

   Bb                                 Dm
e||----------------------------------|----------------------------------|
B||---3---3---3---3---3---3---3---3--|---3---3---3---3---3---3---3---3--|
G||-----3-------3-------3-------3----|-----2-------2-------2-------2----|
D||-3-------3-------3-------3--------|-0-------0-------0-------0--------|
A||----------------------------------|----------------------------------|
E||----------------------------------|----------------------------------|

----------------------------------|----------------------------------||
---3---3---3---3---3---3---3---3--|---1---1---1---1---1---1---1---1--||
-----3-------3-------3-------3----|-----2-------2-------0-------0----||
-3-------3-------3-------3--------|-3-------3------------------------||x2
----------------------------------|-----------------3-------3--------||
----------------------------------|----------------------------------||


I stare at the right side of my double bed
Books and medicines instead of you
Bb             Bb
And you know, yeah you know
Cannon balls hit hard when you're not sleeping
And time takes time it's true



Now I know it's not the way
And that it was meant to be
But right now I don't think I can see
So would you lend me your eyes for a little while
So I might remember how to be


[By (:BB]
Добавлено: 02.07.2013
Другие материалы по этой песне:
  • Аккорды и текст

Страница создана 02.07.2013
http://primanota.ru/nadeah/song-i-just-wrote-chords.htm
Привет, Гость.
Предлагаем пройти революционный курс по гитаре.
Подарок от PrimaNota.Ru, забирай!