PrimaNota.ru - самый крупный в мире бесплатный архив песенных текстов, аккордов, табулатур и нот


Nadeah - Odile - аккорды и текст, видео

Регистрация Запомнить меня
Войти через:  Facebook Google Twitter Vk Yandex Mail.ru

Nadeah - Odile - аккорды и текст, видео

Печатать
Просмотров: 638
Odile
Nadeah
Nadeah – Odile
By Polvoron
 
Chords use in song 
     Em    B          C    A   G
E |--7-----7-------|--8----5---3----|
B |--8-----7-------|--8----5---3----|
G |--9-----8-------|--9----6---4----|
D |--9-----9-------|--10---7---5----|
A |--7-----9-------|--10---7---5----|
E |--7-----7-------|--8----5---3----|
B
Em                        
My name is Odile
 C
and I am a deep sea diver
G
Though I don't get my thrills
B
From the catfish in china
C
I've had a thousand dreams
G
So many I have dived down
B
But still I'm all alone

C                           A                        G                B
Can't you see it's possible and oh oh oh so probable and by by the way by the way
C                     A                       G         B              E
He must be incredible yet oh oh oh so bedable in every, every single way

E |-------------|
B |-------------|
G |-------------|
D |-------------|
A |-------------|
E |--7--9--11---|
Em                         C                        G                B
With a little luck he'll be home before the day can turn, can turn to night
Em                 C                  G                B
With a little luck I'll be blown away by my own Mr Right

C
I don't wanna fight
A
no I don't wanna fight
C                B            Em
All I want is to love him tonight

Break x 2
E |----------------|----------------|----------------|----------------||
B |----------------|----------------|----------------|----------------||
G |--9--9--8--7----|--5--5--7--8----|--9--9--8--7----|--5--5--7--8----||
D |--9--9--8--7----|--5--5--7--8----|--9--9--8--7----|--5--5--7--8----||
A |--7--7--6--5----|--3--3--5--6----|--7--7--6--5----|--3--3--5--6----||
E |----------------|----------------|----------------|----------------||

Name?
Doctor Brown
I am an open heart surgeon
but under my gown
my blood has been a surging
I've held so many hearts
that seemed to be a yearning
Yes still I'm all alone


Can't you see it's possible and oh oh oh so probable
and by, by the way
He must love me, and need me,
and never deceive me, and make my day every single day



I don't wanna fight
no I don't wonna fight
All I want is to love him tonight


With a little luck he'll be waiting for you before the day turns into night
with a little luck you'll be worthing right down wedding aisles in that virginal white

Добавлено: 07.06.2012
Другие материалы по этой песне:
  • Аккорды и текст

Страница создана 07.06.2012
http://primanota.ru/nadeah/odile-chords.htm
Привет, Гость.
Предлагаем пройти революционный курс по гитаре.
Подарок от PrimaNota.Ru, забирай!