PrimaNota.ru - самый крупный в мире бесплатный архив песенных текстов, аккордов, табулатур и нот


Nada Surf - The Manoeuvers - аккорды и текст, таба, видео

Регистрация Запомнить меня
Войти через:  Facebook Google Twitter Vk Yandex Mail.ru

Nada Surf - The Manoeuvers - аккорды и текст, таба, видео

Печатать
Просмотров: 98
Уроки эстрадного вокала в Санкт-Петербурге
The Manoeuvers
Nada Surf
		   ####---%--%---%%%-7--77777-|
E|--------------------------------------------|
Feel free to play the e string 'empty' any time ;)
it sound really great on an acoustic guitar...

Now just the chord progression (it's just easier to read ;) :

e|----------------------------------(7)-------|
B|-12----1312-10----------8----------8--------|
G|-12---------11----------0----------9--------|
D|-10---------12----------9----------9--------|
A|-12---------12----------10---------7--------|
E|--------------------------------------------|

> you can also play ---- instead of the first cord...
                    -12- (I prefer the first way...)
                    -12-
                    -14-
                    -14-
                    ----

> on the second verse you may play -11- instead at the end
                                   -10- of the second chord time
                                   ----
                                   -12-
                                   -12-
                                   ----

Chorus (only chord progression is written down here):

e|-0------0------5------3-----|
B|-8------10-----6------3-----|
G|-0------11-----5------4----*| (the song ends on a C)
D|-9------12-----7------5----*|
A|-10-----12-----5------5-----|
E|----------------------------|

This is my own work
     
Добавлено: 02.10.2013
Другие материалы по этой песне:
  • Аккорды и текст

Страница создана 02.10.2013
http://primanota.ru/nada-surf/the-manoeuvers-chords.htm
Привет, Гость.
Предлагаем пройти революционный курс по гитаре.
Подарок от PrimaNota.Ru, забирай!