PrimaNota.ru - самый крупный в мире бесплатный архив песенных текстов, аккордов, табулатур и нот


Nada Surf - The Future - таба, видео

Регистрация Запомнить меня
Войти через:  Facebook Google Twitter Vk Yandex Mail.ru

Nada Surf - The Future - таба, видео

Печатать
Просмотров: 83
Авторы: Ira Elliot, Matthew Caws, Daniel Lorca

-------------------------------------------------------------------------------
                             The Future - Nada Surf
-------------------------------------------------------------------------------
Tabbed by: Jamie Knauer

This is my first ever tab that I figured out watching the acoustic performance of The 
Future on YouTube. Sounds about right to me so here goes:

Intro: x4 (baa baa's x2)

e|---0----1--------0-----0----------0----0----------3--------------------------|
B|---3----3--------0-----1----------0----1----------0--------------------------|
G|---2----2--------2-----2----------0----0----------0--------------------------|
D|---0----0--------3-----3----------2----2----------0--------------------------|
A|---0----0--------0-----0----------3----3----------2--------------------------|
E|---0----0--------0-----0----------0----0----------3--------------------------|

Part 2: "The future has long lines..." (x4)

e|-----------------------------------------------------------------------------------|
B|-----------------------------------------------------------------------------------|
G|-----------------------------------------------------------------------------------|
D|-----------------------------------------------------------------------------------|
A|-------10-------5-------3--------10------------------------------------------------|
E|-------8--------3-------1--------8-------------------------------------------------|

Part 3: (same guitar riff as intro) "About to make some more mistakes..." (x4)

e|---0----1--------0-----0----------0----0----------3--------------------------|
B|---3----3--------0-----1----------0----1----------0--------------------------|
G|---2----2--------2-----2----------0----0----------0--------------------------|
D|---0----0--------3-----3----------2----2----------0--------------------------|
A|---0----0--------0-----0----------3----3----------2--------------------------|
E|---0----0--------0-----0----------0----0----------3--------------------------|

then goes back into Part 2 riff for "Imitations and hooks..."
Part 3 for "Arrows pointed..." through the end

Lyrics:

The future has long lines
The future looks like a screen
It's all you'll ever see
All lit up like a stadium and
Who will be the first?
The future's made of dust
And we are all just rust in the machine

About to make some more mistakes
Get deathly ill three, four times
I'll find money on the street, no unexpected luck
I will spend some time crying
I'll be adept so much I'll be transformed
I'll get the baby in the king cake
I'll climb a small mountain, get three more bikes stolen
Take four more of kitchen series

Which is imitations and hooks
Bits that you remember nothing
Ask it's another look
The future's empty in it's way
The future has long lines
The future looks like a screen
And I cannot believe the future's happening to me

Arrows pointed, educated, words to let you know
The border guards have graduated
They're taking up their post
I lift the receiver, find you there
I'll win and lose some bets
The magic hour, make me feel at home
In a place I don't know yet
I'll spook the horse, keep the lights on
Leave mythologies alone
I'll try to say all the right things
But get hung up on the tone

The future has long lines
The future looks like a screen
And I cannot believe the future's happening to me
Добавлено: 31.07.2013
Другие материалы по этой песне:
  • Аккорды и текст

Страница создана 31.07.2013
http://primanota.ru/nada-surf/the-future-chords.htm
Привет, Гость.
Предлагаем пройти революционный курс по гитаре.
Подарок от PrimaNota.Ru, забирай!