PrimaNota.ru - самый крупный в мире бесплатный архив песенных текстов, аккордов, табулатур и нот


Nada Surf - Spooky - аккорды и текст, таба, видео

Регистрация Запомнить меня
Войти через:  Facebook Google Twitter Vk Yandex Mail.ru

Nada Surf - Spooky - аккорды и текст, таба, видео

Печатать
Просмотров: 110
Spooky
Nada Surf
========================================================================
Artist: Nada Surf
Album : Proximity Effect
Song  : Spooky

Tabbed by bounav : bounav@free.fr

J'en ai vraiment bavé pour faire pour cette tab !
En fait je suis tombé sur une tab qui m'a mise sur la
voie mais c'était pas encore bon... alors j'ai regardé
comment Matt joue le morceau en live, et j'ai brodé à
partir de mes souvenirs !

J'attend vos remarques & vos corrections !

PS : tout y est mais écoutez qd meme avec le
     cd pour assembler les parties ensembles.


]>VERSE: (toutes les notes ne sonts pas représentées : jouer chaque accord 8x...)
e|-----------|-----------|-----------|-----------|
B|-13--------|-15--------|-13--------|-12--------|
G|-14--------|-16--------|-14--------|-12--------|
D|-14--------|-14--------|-14--------|-14--------|
A|-12--------|-14--------|-12--------|-14--------|
E|-----------|-----------|-----------|-----------|

e|-10--------|-10--------|-12--------|-12--------|
B|-10--------|-10--------|-12--------|-12--------|
G|-10--------|-10--------|-12--------|-12--------|
D|-12--------|-12--------|-14--------|-14--------|
A|-----------|-----------|-----------|-----------|
E|-----------|-----------|-----------|-----------|

e|-10--------|-10--------|-----------|-----------|
B|-10--------|-10--------|-8---------|-8---------|
G|-10--------|-10--------|-9---------|-9---------|
D|-12--------|-12--------|-9---------|-9---------|
A|-----------|-----------|-7---------|-7---------|
E|-----------|-----------|-----------|-----------|

]>INTERLUDE:
e|-7---------|-7---------|-5---------|-5---------|
B|-8---------|-8---------|-5---------|-5---------|
G|-9---------|-9---------|-5---------|-5---------|
D|-9---------|-9---------|-7---------|-7---------|
A|-7---------|-7---------|-7---------|-7---------|
E|-7---------|-7---------|-5---------|-5---------|

]>CHORUS! (disto on)

e|--------|--------|                      |
B|55555555|55554444|                      |
G|55555555|55554444|                      |
D|55555555|55552222|                      |
A|33333333|3333----|2x                    |
E|--------|--------|                      |
	                                  |
e|--------|--------|--------|--------|    |
B|-10-----|-8------|--------|-8------|    |
G|-9------|-7------|-7------|-7------|    |
D|-7------|-5------|-7------|-5------|    |
A|--------|--------|-5------|--------|    |2x
E|--------|--------|--------|--------|    |

e|--------|--------|--------|--------|
B|-5------|-8------|--------|-8------|
G|-5------|-7------|-7------|-7------|
D|-5------|-5------|-7------|-5------|
A|-3------|--------|-5------|--------|
E|--------|--------|--------|--------|

]>Break:
e|-12--------|
B|-13--------| (jouez l'accord pdt 4 mesures avec)
G|-14--------|    (le pouce de la main gauche)
D|-14--------|         (effet percussif!)
A|-12--------|
E|-----------|

]>VERSE
Au lieu de joue l'interlude passer directement au Bridge ci dessous

]>BRIDGE: (disto on)
e|----------------|------------------|
B|----------------|------------------|
G|----10-----10---|------------------|
D|-7--10--7--10---|-7-9-10---7-10-9--|
A|-7--8---7--8----|-7-9-10---7-10-9--|
E|-5------5-------|-5-7-8----5-8--7--|

e|----------------|------------------|
B|----------------|------------------|
G|----10-----10---|------------------|
D|-7--10--7--10---|-7-9-10---9-------|
A|-7--8---7--8----|-7-9-10---9-------|
E|-5------5-------|-5-7-8----7-------|

]>INTERLUDE...

]>CHORUS...
ajouter ceci en plus a la fin du chorus :
e|-----------|-----------|-----------|-----------|
B|-----------|-----------|-----------|-----------|
G|-14--------|-12--------|-----------|-12--------|
D|-14--------|-12--------|-14--------|-12--------|
A|-12--------|-10--------|-14--------|-10--------|
E|-----------|-----------|-12--------|-----------|

]>FIN:
e|-----------|
B|-13...-----|
G|-14...-----|
D|-14...-----|
A|-12...-----|
E|-12...-----| laissez sonner...

     
Добавлено: 21.09.2013
Другие материалы по этой песне:
  • Аккорды и текст

Страница создана 10.04.2012
http://primanota.ru/nada-surf/spooky-chords.htm
Привет, Гость.
Предлагаем пройти революционный курс по гитаре.
Подарок от PrimaNota.Ru, забирай!