PrimaNota.ru - самый крупный в мире бесплатный архив песенных текстов, аккордов, табулатур и нот


Nada Surf - Silver Lining - таба, видео

Регистрация Запомнить меня
Войти через:  Facebook Google Twitter Vk Yandex Mail.ru

Nada Surf - Silver Lining - таба, видео

Печатать
Просмотров: 77
Band  : Nada Surf
Song  : Silverlining
Album : B-side available on the french maxi "Inside of love"

Intro and Verse :

e|----------------|----------------|
B|----7-------7---|---7-------7----| reapeat at lot of times
G|*-7-----7-7----7|-7-----7-7----7*| for the intro, then play
D|*5-5-----5-5----|---------------*| two times into verses
A|----------------|5-5-------------|
E|----------------|--------5-5-----|->2x

e|----------------|----------------|
B|----7-------7---|---7------------|
G|--7-----7-7----7|-7-----7--------|
D|-5-5------------|--------6-------|
A|---------5-5----|----------------|
E|----------------|7-7-------------|

You might problably prefer play open chords?
Here is an alternate way to play verse :
e|---2------2---|---2------2---|
B|-3----3-3----3|-3----3-3----3|
G|0-0----0-0----|-------------*|
D|--------------|0-0----------*|
A|--------------|-------0-0----|
E|--------------|--------------| 2x
  No news, is good now
  All of, has run out

e|---2------2---|---2----------|
B|-3----3-3----3|-3----3-------|
G|0-0-----------|-------1------|
D|-------0-0----|--------------|
A|--------------|2-2-----------|
E|--------------|--------------|
  Now were miming, silverlining

Chorus :

listen to the song to get the extact strumming parterns...

Chords used :

  A*  C*  D   D*  G
e|3---3---2-------3-|
B|1---1---3---7---3-|
G|2---0---2---7---0-|
D|2---2---0---6---0-|
A|0---3---0---7---2-|
E|----------------3-|

A*                       C*      D   (2x)

A*                       C*      D
And im tired, of writing all the news
A*                       C*      D
And im tired, of making all the moves
A*                       G
And im tired, of writing all the news

D                 D

D                 D
No news, is good now
D               D
All of, has run out
D                             D*
Now were miming, silverlining

A*                       C*      D
And im tired, of writing all the news
A*                       C*      D
And im tired, of making all the moves
A*                       G
And im tired, of writing all the news

D                  D


A*                       C*      D (2x)
A*                       G

D

A*                       C*      D (2x)
A*                       G

D                   D


     
Добавлено: 14.08.2013
Другие материалы по этой песне:
  • Аккорды и текст

Страница создана 14.08.2013
http://primanota.ru/nada-surf/silver-lining-chords.htm
Привет, Гость.
Предлагаем пройти революционный курс по гитаре.
Подарок от PrimaNota.Ru, забирай!