PrimaNota.ru - самый крупный в мире бесплатный архив песенных текстов, аккордов, табулатур и нот


Naaman - Karma - таба, видео

Регистрация Запомнить меня
Войти через:  Facebook Google Twitter Vk Yandex Mail.ru

Naaman - Karma - таба, видео

Печатать
Просмотров: 74
Intro: 

E|------------------|------------------|-------------------|--------------------|
B|--------11--------|---------8--------|---------6---------|---------10---------|
G|-----12----12-----|------8-----8-----|-----7-------7-----|-----10------10-----|
D|-12------------12-|-10------------10-|-8---------------8-|-10--------------10-|
A|------------------|------------------|-------------------|--------------------|
E|------------------|------------------|-------------------|--------------------|

Pour le reste du morceau vous pouvez garder les mêmes notes mais en les jouant en accords
For the rest of the song you can keep the same notes and playing them in chords

E|--------------------------------------------|
B|-11-11-----8--8-------6-6------10-10--------|
G|-12-12-----8--8-------7-7------10-10--------|
D|-12-12-----10-10------8-8------10-10--------|
A|--------------------------------------------|
E|--------------------------------------------|


Peace!
Добавлено: 19.06.2016
Другие материалы по этой песне:
  • Аккорды и текст

Страница создана 19.06.2016
http://primanota.ru/naaman/karma-chords.htm
Привет, Гость.
Предлагаем пройти революционный курс по гитаре.
Подарок от PrimaNota.Ru, забирай!