PrimaNota.ru - самый крупный в мире бесплатный архив песенных текстов, аккордов, табулатур и нот


Myth City - The Vendetta - таба, видео

Регистрация Запомнить меня
Войти через:  Facebook Google Twitter Vk Yandex Mail.ru

Myth City - The Vendetta - таба, видео

Печатать
Просмотров: 63
-------------------------------------------------------------------------------
                             The Vendetta - Myth City
-------------------------------------------------------------------------------
Tabbed by: Kealan Thorpe
E-mail:kealan.t@blueyonder.co.uk

Tabbed by ear so its not 100% correct.

The Chorus and breakdown can also be used on bass.

Bands website: http://www.mythcityuk.com/

Tuning:Drop D

Intro:
e|-------------------------------------------------------------------|
B|-------------------------------------------------------------------|
G|-------------------------------------------------------------------|
D|-------------------------------------------------------------------|
A|-------------3--------------------------------3----------3---------|
D|----0----0--1--00-000---------------0----0---1--00-000----0000-----|
      *    *      ** ***
e|---------------------------------------------------------------------------|
B|---------------------------------------------------------------------------|
G|---------------------------------------------------------------------------|
D|---------------------------------------------------------------------------|
A|------------3-------------3-------------------3---------3------------------|
D|----0----0-1--00-000-----1---0000---0----0---1--00-0000--------------------|

e|---------------------------------|
B|---------------------------------|
G|---------------------------------|
D|---------------------------------| x4
A|-------------3----------3--------|
D|----0----0--1--0-0-----1---0---0-|

Verse:
e|-------------------------------------------------------------------|
B|-------------------------------------------------------------------|
G|-------------------------------------------------------------------|
D|-------------------------------------------------------------------|
A|-------------3--------------------------------3----------3---------|
D|----0----0--1--00-000---------------0----0---1--00-000----0000-----|
      *    *      ** ***
e|----------------------------------------------------------|
B|----------------------------------------------------------|
G|----------------------------------------------------------|
D|----------------------------------------------------------| x4
A|------------3-------------3-------------------3-----------|
D|----0----0-1--00-000-----1---0000---0----0---1--00-0000---|

Chorus:
e|-----------------------------------------------------|
B|-----------------------------------------------------|
G|-----------------------------------------------------|
D|-----------------------------------------------------| x3        12=twelve
A|-----------------------------------------------------|
D|---000000000000-3333333333333-0000121212120000121212-|


e|-------------------------------|
B|-------------------------------|
G|-------------------------------|
D|-------------------------------|
A|-------------------------------|
D|----000000000000-3333333333333-|

Verse:
e|-----------------------|
B|-----------------------|
G|-----------------------|
D|-----------------------|
A|-------------3---------|
D|----0---0---1--00-000--|

e|----------------------------------------------------------|
B|----------------------------------------------------------|
G|----------------------------------------------------------|
D|----------------------------------------------------------| x8
A|------------3-------------3-------------------3-----------|
D|----0----0-1--00-000-----1---0000---0----0---1--00-0000---|

Chorus:
e|-----------------------------------------------------|
B|-----------------------------------------------------|
G|-----------------------------------------------------|
D|-----------------------------------------------------| x3         12=twelve
A|-----------------------------------------------------|
D|---000000000000-3333333333333-0000121212120000121212-|


e|-------------------------------|
B|-------------------------------|
G|-------------------------------|
D|-------------------------------|
A|-------------------------------|
D|----000000000000-3333333333333-|

Bridge:
e|-------------------------|
B|-------------------------|
G|-------------------------|
D|-------------------------|
A|------------3------------|
D|----0----0-1--00-000-----|

e|---------------------------------|
B|---------------------------------|
G|---------------------------------|
D|---------------------------------| x4
A|------------3----------3---------|
D|----0----0-1--0-0-----1---0---0--|

Breakdown:
e|-----------------------------------------------------|
B|-----------------------------------------------------|
G|-----------------------------------------------------|
D|-----------------------------------------------------| x4
A|-----------------------------------------------------|
D|----0-9999------------------------0-9999/------------|

************************************

| /   slide up
| \   slide down
| h   hammer-on
| p   pull-off
| ~   vibrato
| +   harmonic
| x   Mute note
| b   Bend
| pb  Pre-bend
| br  Bend release
| pbr Pre-bend release
| brb Bend release bend

************************************
Добавлено: 15.06.2016
Другие материалы по этой песне:
  • Аккорды и текст

Страница создана 15.06.2016
http://primanota.ru/myth-city/vendetta-chords.htm
Привет, Гость.
Предлагаем пройти революционный курс по гитаре.
Подарок от PrimaNota.Ru, забирай!