PrimaNota.ru - самый крупный в мире бесплатный архив песенных текстов, аккордов, табулатур и нот


Mysticum - Let The Kingdom Come - таба, видео

Регистрация Запомнить меня
Войти через:  Facebook Google Twitter Vk Yandex Mail.ru

Mysticum - Let The Kingdom Come - таба, видео

Печатать
Просмотров: 98
-------------------------------------------------------------------------------
                             LET THE KINGDOM COME - Mysticum
-------------------------------------------------------------------------------
Tabbed by: MusicOfSatan
E-mail: somberlain218[a]gmail.com

Tuning: Standard

Riff 1 x2
e|---------------------------------------------------------------------------|
B|---------------------------------------------------------------------------|
G|---------------------------------------------------------------------------|
D|-77777777-1010101010101010-1111111111111111-1010101010101010---------------|
A|-55555555--8-8-8-8-8-8-8-8--9-9-9-9-9-9-9-9--8-8-8-8-8-8-8-8---------------|
E|---------------------------------------------------------------------------|

e|---------------------------------------------------------------------------|
B|---------------------------------------------------------------------------|
G|---------------------------------------------------------------------------|
D|-77777777-99999999-8888888888888888----------------------------------------|
A|-55555555-77777777-6666666666666666----------------------------------------|
E|---------------------------------------------------------------------------|

Riff 2 x2
e|---------------------------------------------------------------------------|
B|---------------------------------------------------------------------------|
G|---------------------------------------------------------------------------|
D|-7777777777777777-1010101010101010-11111111-10101010-----------------------|
A|-5555555555555555--8-8-8-8-8-8-8-8--9-9-9-9--8-8-8-8-----------------------|
E|---------------------------------------------------------------------------|

e|---------------------------------------------------------------------------|
B|---------------------------------------------------------------------------|
G|---------------------------------------------------------------------------|
D|-7777777777777777-99999999-88888888----------------------------------------|
A|-5555555555555555-77777777-66666666----------------------------------------|
E|---------------------------------------------------------------------------|

Riff 3 x4
e|---------------------------------------------------------------------------|
B|---------------------------------------------------------------------------|
G|---------------------------------------------------------------------------|
D|-77778877-66667766-77778877-10101010-1111-1010-----------------------------|
A|-55556655-44445544-55556655--8-8-8-8--9-9--8-8-----------------------------|
E|---------------------------------------------------------------------------|

Riff 4 x4
e|---------------------------------------------------------------------------|
B|---------------------------------------------------------------------------|
G|---------------------------------------------------------------------------|
D|-77777777-88888888-1111111111111111-8888-77-88-----------------------------|
A|-55555555-66666666--9-9-9-9-9-9-9-9-6666-55-66-----------------------------|
E|---------------------------------------------------------------------------|

Riff 5 x8
e|---------------------------------------------------------------------------|
B|---------------------------------------------------------------------------|
G|---------------------------------------------------------------------------|
D|-7777667788887777-14141313-101099-77667777---------------------------------|
A|-5555445566665555-12121111--8-877-55445555---------------------------------|
E|---------------------------------------------------------------------------|

Riff 6 x2
e|---------------------------------------------------------------------------|
B|---------------------------------------------------------------------------|
G|---------------------------------------------------------------------------|
D|-/7777777777777777\3333333333333333----------------------------------------|
A|-/5555555555555555\1111111111111111----------------------------------------|
E|---------------------------------------------------------------------------|

Riff 7 x4
e|---------------------------------------------------------------------------|
B|---------------------------------------------------------------------------|
G|---------------------------------------------------------------------------|
D|-/77777777\33333333/77777777\66\55555555/66--------------------------------|
A|-/55555555\11111111/55555555\66\33333333/44--------------------------------|
E|---------------------------------------------------------------------------|

Riff 1 x4


************************************

| /   slide up
| \   slide down
| h   hammer-on
| p   pull-off
| ~   vibrato
| +   harmonic
| x   Mute note
| b   Bend
| pb  Pre-bend
| br  Bend release
| pbr Pre-bend release
| brb Bend release bend

************************************
Добавлено: 26.10.2013
Другие материалы по этой песне:
  • Аккорды и текст

Страница создана 26.10.2013
http://primanota.ru/mysticum/let-the-kingdom-come-chords.htm
Привет, Гость.
Предлагаем пройти революционный курс по гитаре.
Подарок от PrimaNota.Ru, забирай!