PrimaNota.ru - самый крупный в мире бесплатный архив песенных текстов, аккордов, табулатур и нот


Mystica Girls - Why Should We Need - таба, видео

Регистрация Запомнить меня
Войти через:  Facebook Google Twitter Vk Yandex Mail.ru

Mystica Girls - Why Should We Need - таба, видео

Печатать
Просмотров: 71
-------------------------------------------------------------------------------
                             Why Should We Need? - Mystica Girls
-------------------------------------------------------------------------------
Tabbed by:J. Salvador
E-mail:

Tuning:EADGBE

    pbr 
     /\       ~~~               ~~
e|--/--\---------------------------------------------------------------------|
B|8/----\(8)-77--10^8^7/5^7-7^8^7---7-77/5555/3333/2223-2-3-2-33-3/5-(5)-32/3|
G|---------------------------------------------------------------------------|
D|---------------------------------------------------------------------------|
A|---------------------------------------------------------------------------|
E|---------------------------------------------------------------------------|
                                   PM
e|---------------------------------------------------------------------------|
B|---------------------------------------------------------------------------|
G|--------7/9-9/11-11/12-12/161614-14--14/12/11/9/11--14/12-1212/11-1111-11--|
D|---------------------------------------------------------------------------|
A|--------5/7-7/9 - 9/10-10/141412-12--12/10/9 /7/9 --12/10-1010/9--9 9--9---|
E|---------------------------------------------------------------------------|
                       
e|---------------------------------------------------------------------------|
B|---------------------------------------------------------------------------|
G|-1111/9-99/111111/1212-111111/121212/141414/16-14-141414/12-1212/(14)14----|
D|---------------------------------------------------------------------------|
A|-9-9 /7-77/9 9-9-/1010-9 9 9 /101010/121212/14-12-121212/10-1010/(12)12----|
E|---------------------------------------------------------------------------|
 
                         /b
                        /  
       ~~              /   
e|-----------14-------/14----------------------------------------------------|
B|/(15)15-17---17-15-/------------------------------1212121112-1112----------|
G|-------------------------14-161616-14-16--14/1614-1212121112-1112--1112----|
D|---------------------------------------------------------------------------|
A|---------------------------------------------------------------------------|
E|---------------------------------------------------------------------------|
                    br   ~~   ~~~~                                 ~~~ 
e|------------------/\---------------14-------------14-17-14-14---14---------|
B|-----------------/--\------1515-17---17-151515-17-------------17-----15-17-|
G|(12)/141414-1616/----\14---------------------------------------------------|
D|---------------------------------------------------------------------------|
A|---------------------------------------------------------------------------|
E|---------------------------------------------------------------------------|
  
                                                              )Full bend
                                                             /
                                                            /
                         ~~                              + / 
e|14151515-14-15-14-15-14-15-----14-15-17171717-19-1919 20/------------------|
B|----------------------------17---------------------------------------------|
G|---------------------------------------------------------------------------|
D|---------------------------------------------------------------------------|
A|---------------------------------------------------------------------------|
E|---------------------------------------------------------------------------|


************************************

| /   slide up
| \   slide down
| h   hammer-on
| p   pull-off
| ~   vibrato
| +   harmonic
| x   Mute note
| b   Bend
| pb  Pre-bend
| br  Bend release
| pbr Pre-bend release
| brb Bend release bend

************************************
Добавлено: 24.06.2016
Другие материалы по этой песне:
  • Аккорды и текст

Страница создана 24.06.2016
http://primanota.ru/mystica-girls/why-should-we-need-chords.htm
Привет, Гость.
Предлагаем пройти революционный курс по гитаре.
Подарок от PrimaNota.Ru, забирай!