PrimaNota.ru - самый крупный в мире бесплатный архив песенных текстов, аккордов, табулатур и нот


Mystic Braves - Desert Island - таба, видео

Регистрация Запомнить меня
Войти через:  Facebook Google Twitter Vk Yandex Mail.ru

Mystic Braves - Desert Island - таба, видео

Печатать
Просмотров: 109
Verse - 

Part 1 - 

e|-----------3---------------------------------------------------------------|
B|--------------6--5--6----5----5----6-5-3-------3--5--5h6---5-/3--1---------|
G|--------------------------------------------5-----------------------3--0---|
D|---------------------------------------------------------------------------|
A|---------------------------------------------------------------------------|
E|-1----3--------------------------------------------------------------------|


e|---------------------------------------------------------------------------|
B|----------------6--6--6----------------------------------------------------|
G|----3--5--5-/7-------------------------------------------------------------|
D|-5-------------------------------------------------------------------------|
A|---------------------------------------------------------------------------|
E|---------------------------------------------------------------------------|


e|-3-------------------------------------------------------------------------|
B|----6--5--6----5----5----6-5-3-------3--5--5h6---5-/3--1-------------------|
G|----------------------------------5-----------------------3--0-------------|
D|---------------------------------------------------------------------------|
A|---------------------------------------------------------------------------|
E|---------------------------------------------------------------------------|


e|---------------------------------------------------------------------------|
B|---------------------------------------------------------------------------|
G|----3--5--5-/7--7~---------------------------------------------------------|
D|-5-------------------------------------------------------------------------|
A|---------------------------------------------------------------------------|
E|---------------------------------------------------------------------------|


Part 2 - 


e|----------------------------3--6~---6~---6~--6p5p3--3--3-h5-/3--1--1h3-----|
B|-6-p5--3--5--3-----3----3h6------------------------------------------------|
G|----------------5----------------------------------------------------------|
D|---------------------------------------------------------------------------|
A|---------------------------------------------------------------------------|
E|---------------------------------------------------------------------------|



e|---------------------------------------------------------------------------|
B|-6-p5--3--5--3-----3-------------------------------------------------------|
G|----------------5-------5----5----3---------------3-----3h5-3--------------|
D|-------------------------------------5--3--5--3h5----5---------5--5--------|
A|---------------------------------------------------------------------------|
E|---------------------------------------------------------------------------|


Part 3 - 

e|--------------------------------------------------------------------------------|
B|------------------------------------------6--6--6-------------------------------|
G|-3----2----2----3--2----------3--5--5-/7-----------7-/5--3------------3--5-/7--7|
D|----------------------5----5----------------------------------5----5------------|
A|--------------------------------------------------------------------------------|
E|--------------------------------------------------------------------------------|


e|-3-------------------------------------------------------------------------|
B|----6--5--6----5----5----6-5-3-------3--5--5h6---5-/3--1-------------------|
G|----------------------------------5-----------------------3--0-------------|
D|---------------------------------------------------------------------------|
A|---------------------------------------------------------------------------|
E|---------------------------------------------------------------------------|


e|---------------------------------------------------------------------------|
B|---------------------------------------------------------------------------|
G|----3--5--5-/7--7~---------------------------------------------------------|
D|-5-------------------------------------------------------------------------|
A|---------------------------------------------------------------------------|
E|---------------------------------------------------------------------------|


Verse is:
Part 1
Part 2
Part 3
Part 2




Chorus - 


e|--6-p5--3--5-p3-----3----3-----3----3-----3--5--6--15--------15--13--15----|
B|-----------------6----------6----------6-----------------------------------|
G|---------------------------------------------------------------------------|
D|---------------------------------------------------------------------------|
A|---------------------------------------------------------------------------|
E|---------------------------------------------------------------------------| x 2




Song is just verse chorus verse chorus :0
Добавлено: 31.05.2015
Другие материалы по этой песне:
  • Аккорды и текст

Страница создана 31.05.2015
http://primanota.ru/mystic-braves/desert-island-chords.htm
Привет, Гость.
Предлагаем пройти революционный курс по гитаре.
Подарок от PrimaNota.Ru, забирай!