PrimaNota.ru - самый крупный в мире бесплатный архив песенных текстов, аккордов, табулатур и нот


Mystic Braves - Cloud 9 - бас-таба, видео

Регистрация Запомнить меня
Войти через:  Facebook Google Twitter Vk Yandex Mail.ru

Mystic Braves - Cloud 9 - бас-таба, видео

Печатать
Просмотров: 123
-------------------------------------------------------------------------------
                             Cloud 9 - Mystic Braves
-------------------------------------------------------------------------------
Tabbed by: David Pierre
E-mail: davidpierre1018@gmail.com

Tuning: standard

my first tab :^) 
this may not be perfect but it's what I play and I think it sounds right.

G|---------------------------------------------------------------------------|
D|---------------------------------------------------------------------------|
A|-----2-4-4-----2-4-3-2--2-2-2----------------------------------------------|
E|--2---------2------------------5-5-5-7-------------------------------------|

the bridge at 3:48

G|---------------------------------------------------------------------------|
D|---------------------------------------------------------------------------|
A|----2-4---2-000-2-44-2-44-2-4-2-0------------------------------------------|
E|--2-------------------------------4----------------------------------------|

play that part several times and end it like this

G|---------------------------------------------------------------------------|
D|---------------------------------------------------------------------------|
A|----2-4---2-000-2-44-2-44-2-4-2-0---4-2-0---4-2-0---4-2-0------------------|
E|--2-------------------------------4-------4-------4--------4---------------|

then go right into the main bass line and repeat it until the end of the song. 
listen to the song for timing and add some slides wherever you see fit

| /  slide up
| \  slide down
| h  hammer-on
| p  pull-off
| ~  vibrato
| +  harmonic
| x  Mute note
===============================================================================
Добавлено: 31.05.2015
Другие материалы по этой песне:
  • Аккорды и текст

Страница создана 31.05.2015
http://primanota.ru/mystic-braves/cloud-9-chords.htm
Привет, Гость.
Предлагаем пройти революционный курс по гитаре.
Подарок от PrimaNota.Ru, забирай!