PrimaNota.ru - самый крупный в мире бесплатный архив песенных текстов, аккордов, табулатур и нот


Myrkur - Frosne Vind - таба, видео

Регистрация Запомнить меня
Войти через:  Facebook Google Twitter Vk Yandex Mail.ru

Myrkur - Frosne Vind - таба, видео

Печатать
Просмотров: 100
Standard tuning - 3/4

Song: Frosne Vind
Artist: Myrkur
Album: Myrkur


Don't take the spacings below too serious. The entire thing
is repeated once.

Main stuff:

|-------------------------------------------------------|
|----------------6---8-6--------------------------------|
|---9-----5---79-----------9-----9-7---97-5-------------|
|-7-----7-----------------------------------9-7-9---6---|
|-----------------------------------------------------7-|
|-------------------------------------------------------|

|-------------------------------------------------------|
|---------------------6---------------------------------|
|---------5----5-7---9---9-------9-7---97-5-------------|
|---7---9-----9-----------------------------9-7-9-------|
|-7---------------------------------------------------7-|
|-------------------------------------------------------|

|-------------------------------------------------------|
|-------------------------------------------------------|
|---7---6-7-9-6--------------------5--------------------|
|-7-------------7--5--7-9-7------7-----97-9-7-9-6-------|   This part is only played the first time around
|-----------------------------------------------------7-|    |
|-------------------------------------------------------|   \|/
                                                             ˙
|-------------------------------------------------------|---------|
|-----------------6--86---------------------------------|---------|
|---7---6-7-9-6---------9----9-7---97-5-----------------|---------|
|-7-------------7-----------------------9-7-5---79-7--7-|-5--79-7-|
|-------------------------------------------------------|---------|
|-------------------------------------------------------|---------|


Backing/rhythm stuff:

|-------------------------------------------------------|
|-------------------------------------------------------|
|-----------------2-2-----------------2-----------------|
|-----2-2---2-2-0-------2-2-----0---2-----------2-------|
|---0-----0-----------0-------2---0---------------------|
|---------------------------3-----------0---(0)-0-------|

|-------------------------------------------------------|
|-------------------------------------------------------|
|-------------------------0-----------2-----------------|
|-----2-2---2-2-----0---2-------0---2-----------2-------|
|---0-----0-------2---0-------2---0---------------------|
|---------------3-----------3-----------0---(0)-0-------|

|-------------------------------------------------------|
|-------------------------------------------------------|
|-----------------------------------2-2-----------------|
|-----2-2---2-2-----0---2-2---------------------2-------|
|---0-----0-------2---0-------3-3-0-------------2-------|
|---------------3-----------1-----------0---(0)-0-------|

                                                  Only first time
|------------------------------------------------|---------------|
|------------------------------------------------|---------------|
|-----------------2-2----------------------------|---------------|
|-----2-2---2-2-0---------2---------2-2-----0----|-------0-------|
|---0-----0-----------0-------3-3-0-------2---0--|-0---2---0-----|
|---------------------------1-----------3--------|---3-----------|


There's also a third string instrument which plays more or less
the same thing as the first one.
Добавлено: 21.12.2015
Вам также может быть интересно:
Другие материалы по этой песне:
  • Аккорды и текст

Страница создана 21.12.2015
http://primanota.ru/myrkur/frosne-vind-chords.htm
Привет, Гость.
Предлагаем пройти революционный курс по гитаре.
Подарок от PrimaNota.Ru, забирай!