PrimaNota.ru - самый крупный в мире бесплатный архив песенных текстов, аккордов, табулатур и нот


Myrath - Merciless Times - бас-таба, видео

Регистрация Запомнить меня
Войти через:  Facebook Google Twitter Vk Yandex Mail.ru

Myrath - Merciless Times - бас-таба, видео

Печатать
Просмотров: 192
Уроки эстрадного вокала в Санкт-Петербурге
-------------------------------------------------------------------------------
                          Merciless Times - Myrath
-------------------------------------------------------------------------------



Intro

C|-------|-------|-------|-------|-------|---------------------|
G|-------|-------|-------|-------|-------|---------------------|
D|-------|-------|-------|-------|-------|---------------------|
A|-------|-------|-------|-------|-------|-------------------0-|


    S S S S S S S S S S S S S S S S      S S S S S S S S S S S S S S S S  
C|------------------------------------|---------------------------------------|
G|------------------------------------|---------------------------------------|
D|------8---8-7---8---8-5-------------|------8---8-7-----8---8-5-5-7-8--------|
A|--L-0---0-----0---0-----0-0-0-0-0---|--L-0---0-----0-0---0-----------0------|


    S S S S S S S E  S  S S  S  S S S    S S S S S S S  S  S  S  S  S S S S S  
C|------------------------------------|---------------------------------------|
G|------------------------------------|---------------------------------------|
D|------8---8-7--------11---11-10-----|------8---8-7-7-11-11-10-10-10-8-8-8---|
A|--L-0---0-----0-0--0----0-------0-0-|--L-0---0----------------------------0-|


Verse 1

    S S S S S S S S S S S S S S S S      S S S S S S S S S S S S S S S S  
C|------------------------------------|---------------------------------------|
G|------------------------------------|---------------------------------------|
D|------8---8-7---8---8-7-------------|------8---8-7-----8---8-7--------------|
A|--L-0---0---------0-----0-0-0-0-0---|----0---0-------0---0-------0-0-0------|


    S S S S S S S E  S  S S  S  S S S    S S S S S S S  S  S  S  S  S S S S S  
C|------------------------------------|---------------------------------------|
G|------------------------------------|---------------------------------------|
D|------8---8-7--------11---11-10-----|------8---8-7-7-11-11-10-10-10-8-8-8---|
A|--L-0---0-----0-0--0----0-------0-0-|--L-0---0----------------------------0-|


    S S S S S S S S S S S S S S S S      S S S S S S S S S S S S S S S S  
C|------------------------------------|---------------------------------------|
G|------------------------------------|---------------------------------------|
D|------8---8-7---8---8-7-------------|-------8---8-7-----8---8-7-------------|
A|--L-0---0---------0-----0-0-0-0-0---|----0---0-------0---0-------0-0-0------|


    S S S S S S S E  S  S S  S  S S S    S S S S S S S  S  S  S  S  S  S  S  S S  
C|------------------------------------|------------------------------------------|
G|------------------------------------|------------------------------------------|
D|------8---8-7--------11---11-10-----|------8---8-7-7-11-11-10-10-10-14-12-11-8-|
A|--L-0---0-----0-0--0----0-------0-0-|--L-0---0---------------------------------|


Fill
    W                     
C|-------------------|
G|-------------------|
D|-------------------|
A|--0----------------|


cHORUS

    E  S S S E  E  E  S E  S S    Q    S S S  E   E   S  E   E
C|-----------------------------|--------------------------------|
G|-----------------------------|--------------------------------|
D|---------7-7--5--5--5-5--5-5-|--8----8-8-8-10--10--10-10--10--|
A|--0--0-0---------------------|--------------------------------|

    Q    S S S E  S E  S E  S     E   S S S S E  E  S E  S S
C|-----------------------------|--------------------------------|
G|-----------------------------|--------------------------------|
D|--5----5-5-5-7--7-7--7-7--7--|--5---5-5-5-5-7--7--7-7--7-7----|
A|-----------------------------|--------------------------------|


    E  S S S E  E  E  S E  S S   Q    S S S  E   E   S  E   E
C|-----------------------------|--------------------------------|
G|-----------------------------|--------------------------------|
D|---------7-7--5--5--5-5--5-5-|--8----8-8-8-10--10--10-10--10--|
A|--0--0-0---------------------|--------------------------------|


    Q    S S S E  S E  S E  S     E   S S S S E  E  S S S S S
C|-----------------------------|--------------------------------|
G|-----------------------------|--------------------------------|
D|--5----5-5-5-7--7-7--7-7--7--|--5---5-5-5-5-7--7--------------|
A|-----------------------------|--------------------0-0-0-0-0---|
 


Fill

    S S E  Q    Q    Q               Q    Q    Q    S S S S
C|------------------------|-------|-------------------------|
G|------------------------|-------|-------------------------|
D|------------------------|-------|-------------------------|
A|--L---------------------|-------|-----------------------0-|


S S S S S S S  S  S  S  S  S S S S S
C|---------------------------------------|
G|---------------------------------------|
D|------8---8-7-7-11-11-10-10-10-8-8-8---|
A|--L-0---0----------------------------0-|



Verse 2

    S S S S S S S S S S S S S S S S      S S S S S S S S S S S S S S S S  
C|------------------------------------|---------------------------------------|
G|------------------------------------|---------------------------------------|
D|------8---8-7---8---8-7-------------|------8---8-7-----8---8-7--------------|
A|--L-0---0---------0-----0-0-0-0-0---|----0---0-------0---0-------0-0-0------|


    S S S S S S S E  S  S S  S  S S S      
C|------------------------------------|---------------------------------------|
G|------------------------------------|---------------------------------------|
D|------8---8-7--------11---11-10-----|------8---8-7-7-11-11-10-10-10-8-8-8---|
A|--L-0---0-----0-0--0----0-------0-0-|--L-0---0----------------------------0-|


    S S S S S S S S S S S S S S S S      S S S S S S S S S S S S S S S S  
C|------------------------------------|---------------------------------------|
G|------------------------------------|---------------------------------------|
D|------8---8-7---8---8-7-------------|-------8---8-7-----8---8-7-------------|
A|--L-0---0---------0-----0-0-0-0-0---|----0---0-------0---0-------0-0-0------|


    S S S S S S S E  S  S S  S  S S S    S S S S S S S  S  S  S  S  S  S  S  S S  
C|------------------------------------|------------------------------------------|
G|------------------------------------|------------------------------------------|
D|------8---8-7--------11---11-10-----|------8---8-7-7-11-11-10-10-10-14-12-11-8-|
A|--L-0---0-----0-0--0----0-------0-0-|--L-0---0---------------------------------|


Fill
    W                     
C|-------------------|
G|-------------------|
D|-------------------|
A|--0----------------|



cHORUS

    E  S S S E  E  E  S E  S S    Q    S S S  E   E   S  E   E
C|-----------------------------|--------------------------------|
G|-----------------------------|--------------------------------|
D|---------7-7--5--5--5-5--5-5-|--8----8-8-8-10--10--10-10--10--|
A|--0--0-0---------------------|--------------------------------|

    Q    S S S E  S E  S E  S     E   S S S S E  E  S E  S S
C|-----------------------------|--------------------------------|
G|-----------------------------|--------------------------------|
D|--5----5-5-5-7--7-7--7-7--7--|--5---5-5-5-5-7--7--7-7--7-7----|
A|-----------------------------|--------------------------------|


    E  S S S E  E  E  S E  S S   Q    S S S  E   E   S  E   E
C|-----------------------------|--------------------------------|
G|-----------------------------|--------------------------------|
D|---------7-7--5--5--5-5--5-5-|--8----8-8-8-10--10--10-10--10--|
A|--0--0-0---------------------|--------------------------------|


    Q    S S S E  S E  S E  S     E   S S S S E  E  S S S S S
C|-----------------------------|--------------------------------|
G|-----------------------------|--------------------------------|
D|--5----5-5-5-7--7-7--7-7--7--|--5---5-5-5-5-7--7--7-7-7-7-7---|
A|-----------------------------|--------------------------------|



Solo

    S S S S S S S S S S S S S S S S     S  S  S  S  S  S S S S S S S S S S S  
C|----------------------------------|----------------------------------------|
G|----------------------------------|----------------------------------------|
D|--8-8-8-8-8-8-5-5-5-5-5-5-5-5-5-5-|--10-10-10-10-10-10-3-3-3-3-3-3-3-3-3-3-|
A|----------------------------------|----------------------------------------|


    S S S S S S S S S S S S S S S S    E  S E  S E  E  E  S S S S  
C|----------------------------------|----------------------------------------|
G|----------------------------------|----------------------------------------|
D|--8-8-8-8-8-8-5-5-5-5-5-5-5-5-5-5-|--7--7-7--7-7--7--7--7-7-7-7------------|
A|----------------------------------|----------------------------------------|


    S S S S S S S S S S S S S S S S     S  S  S  S  S  S S S S S S S S S S S  
C|----------------------------------|----------------------------------------|
G|----------------------------------|----------------------------------------|
D|--8-8-8-8-8-8-5-5-5-5-5-5-5-5-5-5-|--10-10-10-10-10-10-3-3-3-3-3-3-3-3-3-3-|
A|----------------------------------|----------------------------------------|


    S S S S S S S S S S S S S S S S    S S S S S S  S S S  S S S  S  S  S  S  
C|----------------------------------|---------------------10-9-7-16-14-13-10-|
G|----------------------------------|--------9-7-6-10-9-7--------------------|
D|--8-8-8-8-8-8-5-5-5-5-5-5-5-5-5-5-|--8-7-5---------------------------------|
A|----------------------------------|----------------------------------------|


 
CHORUS

    E  S S S E  E  E  S E  S S    Q    S S S  E   E   S  E   E
C|-----------------------------|--------------------------------|
G|-----------------------------|--------------------------------|
D|---------7-7--5--5--5-5--5-5-|--8----8-8-8-10--10--10-10--10--|
A|--0--0-0---------------------|--------------------------------|

    Q    S S S E  S E  S E  S     E   S S S S E  E  S E  S S
C|-----------------------------|--------------------------------|
G|-----------------------------|--------------------------------|
D|--5----5-5-5-7--7-7--7-7--7--|--5---5-5-5-5-7--7--7-7--7-7----|
A|-----------------------------|--------------------------------|


    E  S S S E  E  E  S E  S S   Q    S S S  E   E   S  E   E
C|-----------------------------|--------------------------------|
G|-----------------------------|--------------------------------|
D|---------7-7--5--5--5-5--5-5-|--8----8-8-8-10--10--10-10--10--|
A|--0--0-0---------------------|--------------------------------|


    Q    S S S E  S E  S E  S     E   S S S S E  E  S S S S S
C|-----------------------------|--------------------------------|
G|-----------------------------|--------------------------------|
D|--5----5-5-5-7--7-7--7-7--7--|--5---5-5-5-5-7--7--------------|
A|-----------------------------|--------------------0-0-0-0-0---|
 

 
Outro

    H          H           H        S S S S S S S S    H          H          
C|----------------------|---------------------------|-----------------------|
G|----------------------|---------------------------|-----------------------|
D|----------------------|-----------8---8-5-5-7-8---|-----------------------|
A|--0S--------13--------|--0----------0-----------0-|--0S--------15\--------|


    Q    E    S  S  S  S  S S S S S    E  E   Q    Q    Q      
C|----------------------------------|------------------------|
G|----------------------------------|------------------------|
D|-----------11-11-10-10-10-8-8-8-7-|--L--L\-----------------|
A|--0----L--------------------------|------------------------|


******************************************************************************

W - Whole
H - Half
Q - Quarter
E - Eigth
S - Sixteenth
T - 32nd
X - 64th
L - Tied Note

Добавлено: 15.08.2013
Другие материалы по этой песне:

Страница создана 15.08.2013
http://primanota.ru/myrath/merciless-times-chords.htm
Привет, Гость.
Предлагаем пройти революционный курс по гитаре.
Подарок от PrimaNota.Ru, забирай!