PrimaNota.ru - самый крупный в мире бесплатный архив песенных текстов, аккордов, табулатур и нот


Mymp - Sakay - текст песни, таба, видео

Регистрация Запомнить меня
Войти через:  Facebook Google Twitter Vk Yandex Mail.ru

Mymp - Sakay - текст песни, таба, видео

Печатать
Просмотров: 163
Уроки эстрадного вокала в Санкт-Петербурге
Song : Sakay
Artist : MYMP
Tabbed by : Marvin Villanueva

Standard tuning : EADGBE

Chords Pattern: D-A-EM7-E
   D   A  EM7  E
E|-0-|-0-|-0-|-0-|
B|-3-|-2-|-0-|-0-|
G|-2-|-2-|-2-|-1-|
D|-0-|-2-|-2-|-2-|
A|-x-|-0-|-2-|-2-|
E|-x-|-x-|-0-|-0-|

Intro : do CP 2x (2nd time with riff 1)

Riff 1
E|------------------------|---------------------------|
B|------------------------|---------------------------|
G|-----------------7/9----|---------------------------|
D|---4h7-6---6h7p6--------|---4h7-6---6h7(p6)--2/4----|
A|------------------------|---------------------------|
E|------------------------|---------------------------|

E|------------------------|---------------------------|
B|------------------------|---------------------------|
G|-----------------7/9----|---9p7--6-6h7--7/9---------|
D|---4h7-6---6h7p6--------|--------------------7/9----|
A|------------------------|---------------------------|
E|------------------------|---------------------------|

Verse 1 : 
  D           A      EM7        E
Tumawag ang barkada saan daw pupunta
Gusto daw nilang lumayas
Magulo na yata yan pero ok lang
Basta't ikaw ay kasama

Refrain 1 
At wag ka nang mag-alinlangan
Di naman kita ikikidnap
Sakay ka lang sa trip kong ito
				      E
Sige na, sagot kong kwento

Chorus : 
Gusto ko ay sumakay sa kotse mong magara
Pupunta tayo kahit saan
Magdamagan, basta't mag-drive ka lang

(Repeat intro w/ riff 1)

Verse 2 : 
Pupunta tayo kahit saan gusto
Saan man dalhin ng hangin
Baguio, Tagaytay, kahit anong lagay
Basta't kasama ka't kasabay

Refrain 2 :
At wag ka nang mag-alinlangan
Di naman ito magastos
Sakay ka lang sa trip kong ito
					E
Sige na, sagot kong gas mo

(Repeat Chorus)

(Repeat intro w/ riff 1)

Bridge :
Simpleng bagay, simpleng trip
Pero ubo ng saya
At tuwing Makita kang naka-ngiti
			E
Ako'y natutuwa...aaaahhhh

Adlib : do intro w/ riff 1 follows...

(Do CP)

Solo :
E|-----------------------------------------------------------------|
B|-----------------------------------------------------------------|
G|-----------------/11---9--11--13--13^(14)13^(14)r(13)p11\9-11----|
D|---4h7-6---6h7p6-------------------------------------------------|
A|-----------------------------------------------------------------|
E|-----------------------------------------------------------------|

E|------------------------|---------------------------|
B|------------------------|---------------------------|
G|-----------------7/9----|---9p7--6-6h7--7/9---------|
D|---4h7-6---6h7p6--------|--------------------7/9----|
A|------------------------|---------------------------|
E|------------------------|---------------------------|

     E
							*
E|----------------------------------------9-|
B|-----------------------------9^(11)r9p7---|
G|---------------------------7--------------|
D|-----------5-7-7/9-----7-9----------------|
A|-------5-7---------7-9--------------------|
E|---5-7------------------------------------|

(Repeat Chorus)

(Repeat Intro w/ riff 1)
Yeah yeah...Yeah yeah...Yeah yeah...Ooooooh

E|-------5-------|
B|-------5-------|
G|-------7-------|
D|---4h7-7-------|
A|-------5-------|
E|-------0-------|  let ring through..
Добавлено: 08.07.2012
Другие материалы по этой песне:
  • Аккорды и текст

Страница создана 26.03.2012
http://primanota.ru/mymp/sakay-chords.htm
Привет, Гость.
Предлагаем пройти революционный курс по гитаре.
Подарок от PrimaNota.Ru, забирай!