PrimaNota.ru - самый крупный в мире бесплатный архив песенных текстов, аккордов, табулатур и нот


Mymp - Officially Missing You - таба, видео

Регистрация Запомнить меня
Войти через:  Facebook Google Twitter Vk Yandex Mail.ru

Mymp - Officially Missing You - таба, видео

Печатать
Просмотров: 105
Intro: 0:00 (1x)

E---3-3~-3-----------|---3-3~-3------0----|
B---3-3~-3----2-4~-4-|---3-3~3-------3-0~-|
G-------0-----2-4~-4-|-----------------0~-|
D--------------------|--------------------|
A---------------2~2--|--------------------|
E-3---3-----2--------|-0---0-------3---3--|

E--3-0~-0-----2~h3~-3|---3-3~-3------33~~-|
B--3-0~-------3~-3~3-|---1-1~1-------33~~-|
G--------------------|--------------------|
D--------------------|-------------0------|
A-3--3-3----2--------|-0---0--------------|
E----------------0---|--------------------|

Ooooo
OooOoo
oooo....



Verse 1: 0:20 (1x)

E---3-3~-3-----------|---3-3~-3------0----|
B---3-3~-3----2-4~-4-|---3-3~3-------3-0~-|
G-------0-----2-4~-4-|-----------------0~-|
D--------------------|--------------------|
A---------------2~2--|--------------------|
E-3---3-----2--------|-0---0-------3---3--|

E--3-0~-0-----2~h3~-3|---3-3~-3------33~~-|
B--3-0~-------3~-3~3-|---1-1~1-------33~~-|
G--------------------|--------------------|
D--------------------|-------------0------|
A-3--3-3----2--------|-0---0--------------|
E----------------0---|--------------------|

All i hear is raindrops
falling on the rooftop
oo baby tell my why'd you have to go
cuz this feeling im feeling wont go away
and today, im officially missing you..



Verse 2: 0:43 (1x)

E---3-3~-3-----------|---3-3~-3------0----|
B---3-3~-3----2-4~-4-|---3-3~3-------3-0~-|
G-------0-----2-4~-4-|-----------------0~-|
D--------------------|--------------------|
A---------------2~2--|--------------------|
E-3---3-----2--------|-0---0-------3---3--|

E--3-0~-0-----2~h3~-3|---3-3~-3------33~~-|
B--3-0~-------3~-3~3-|---1-1~1-------33~~-|
G--------------------|--------------------|
D--------------------|-------------0------|
A-3--3-3----2--------|-0---0--------------|
E----------------0---|--------------------|

I thought that from this heartache
I could escape,
But I fronted long enough to know
There ain't no way
And today, I'm officially missing you



Chorus: 1:04 (1x)

E---3-3~-3-----------|---3-3~-3------0----|
B---3-3~-3----2-4~-4-|---3-3~3-------3-0~-|
G-------0-----2-4~-4-|-----------------0~-|
D--------------------|--------------------|
A---------------2~2--|--------------------|
E-3---3-----2--------|-0---0-------3---3--|

E--3-0~-0-----2~h3~-3|---3-3~-3------33~~-|
B--3-0~-------3~-3~3-|---1-1~1-------33~~-|
G--------------------|--------------------|
D--------------------|-------------0------|
A-3--3-3----2--------|-0---0--------------|
E----------------0---|--------------------|

ooo cant nobody do it like you.
said every little thing you do
hey baby says stays on my mind
and I'am officially...



Verse 3: 1:26 (1x)

E---3-3~-3-----------|---3-3~-3------0----|
B---3-3~-3----2-4~-4-|---3-3~3-------3-0~-|
G-------0-----2-4~-4-|-----------------0~-|
D--------------------|--------------------|
A---------------2~2--|--------------------|
E-3---3-----2--------|-0---0-------3---3--|

E--3-0~-0-----2~h3~-3|---3-3~-3------33~~-|
B--3-0~-------3~-3~3-|---1-1~1-------33~~-|
G--------------------|--------------------|
D--------------------|-------------0------|
A-3--3-3----2--------|-0---0--------------|
E----------------0---|--------------------|

All I do is lay around
Two ears full tears
From looking at your face on the wall
Just a week ago you were my baby
Now I don't even know you at all
I don't know you at all



Refrain: 1:47 (1x)

E----3~----3-2~--|--3-3~--------|
B----3~----3-3~3-|--3-3~----3-0-|
G----------------|----------0-0-|
D----------------|--------------|
A-3~-3----2--2~--|--------------|
E----------------|-0--0----3--3-|

E--3-0~----2~h3~-|-3~~-----33~~-|
B--3-0~----3~-3~-|-1~~-----33~~-|
G----------------|--------------|
D----------------|-------0------|
A-3--3----2------|-0------------|
E-------------0--|--------------|

Well I wish that you would call me right now
So that I could get through to you somehow
But I guess it's safe to say baby safe to say
That I'm officially missing you



Chorus: 2:08 (1x)

E---3-3~-3-----------|---3-3~-3------0----|
B---3-3~-3----2-4~-4-|---3-3~3-------3-0~-|
G-------0-----2-4~-4-|-----------------0~-|
D--------------------|--------------------|
A---------------2~2--|--------------------|
E-3---3-----2--------|-0---0-------3---3--|

E--3-0~-0-----2~h3~-3|---3-3~-3------33~~-|
B--3-0~-------3~-3~3-|---1-1~1-------33~~-|
G--------------------|--------------------|
D--------------------|-------------0------|
A-3--3-3----2--------|-0---0--------------|
E----------------0---|--------------------|

ooo cant nobody do it like you.
said every little thing you do
hey baby says stays on my mind
and I'am officially...



Bridge: 2:30 (1x) *strumb with your thumb* <-- haha that ryhmes

E-3~-----------|---------------|
B-1~--0~-h3~---|-3~-3~-3~--3-0-|
G-0~--0~--0~---|-0~-0~-0~--0-0-|
D-2~--2~--0~---|-2~-0~-0~--0-2-|
A-0~--2~--2~---|-3~-2~-2~--2-2-|
E-----0~--3~---|-------3~--3-0-|

E--------------|-3~-3---x-3-3--|
B-1~-3~--1---3-|-3~-----x-3-3--|
G-0~-0~--0-0-0-|-0~-----x------|
D-2~-0~--2-0-2-|-2~--0--x-0-0--|
A-0~-2~--0-2-2-|-3~3----x------|
E----------3---|---------------|

Well I thought I could just get over you baby
But I see that's something I just can't do
From the way you would hold me
To the sweet things you told me
I just can't find a way
To let go of you



Chorus: 2:55 then 3:16 (2x)

E---3-3~-3-----------|---3-3~-3------0----|
B---3-3~-3----2-4~-4-|---3-3~3-------3-0~-|
G-------0-----2-4~-4-|-----------------0~-|
D--------------------|--------------------|
A---------------2~2--|--------------------|
E-3---3-----2--------|-0---0-------3---3--|

E--3-0~-0-----2~h3~-3|---3-3~-3-------33~-|
B--3-0~-------3~-3~3-|---1-1~1--------33~-|
G--------------------|--------------------|
D--------------------|--------------0-----|
A-3--3-3----2--------|-0---0--------------|
E----------------0---|--------------------|

Ooo Cant nobody do it like you
said every little thing you do
hey baby says stays on my mind
and I'am officially..

its official..
ohh you that im missing you yes,yes
all i hear is raindrops, oo yes.
and i'm officially missing you..
Добавлено: 14.05.2012
Другие материалы по этой песне:
  • Аккорды и текст

Страница создана 14.05.2012
http://primanota.ru/mymp/officially-missing-you-chords.htm
Привет, Гость.
Предлагаем пройти революционный курс по гитаре.
Подарок от PrimaNota.Ru, забирай!