PrimaNota.ru - самый крупный в мире бесплатный архив песенных текстов, аккордов, табулатур и нот


Mymp - Last Chance - таба, видео

Регистрация Запомнить меня
Войти через:  Facebook Google Twitter Vk Yandex Mail.ru

Mymp - Last Chance - таба, видео

Печатать
Просмотров: 105
Last Chance - M.Y.M.P.

Album: New Horizon
Track Number: 8
Duration: 4:33
Tuning: F

Tabs by: AJ Albaniel

==============================================================================
==============================================================================

UPDATED!

i divided the tab into several parts, to avoid confusion

  - INTRO          /=======================\
  - PART 1         \  it would be easier   /
  - PART 2         /  if you'll memorize   \
  - RIFF           \ the WHOLE song first! /
  - PART 3         /      BWAHAHAH!!       \
  - PART 4         \-======================/
  - BRIDGE
  - PART 5
  - OUTRO

==============================================================================
==============================================================================

PLEASE TAKE NOTE OF THE TUNING USED!
its F-Tuning, therefore, place your capo on the first fret.

goodluck! :D

==============================================================================
==============================================================================


[0:00]==
 INTRO:
========

         G           Em         Am           D
f  |-----------|-----------|----0------|-------0---|
C  |-3-----3---|-3-----3---|--3---1----|-----1---1-|
G# |---------0-|---------0-|--------0--|---2-------|
D# |-----0-----|-----2-----|-----------|-0---------|
A# |---2-------|---2-------|--0--------|-----------|
F  |-3---------|-0---------|-----------|-----------|

         G           Em         Am           D
f  |-----------|-----------|----0------|-----2-----|
C  |-------3---|-3-----3---|--3---1----|-----1-----|
G# |---------0-|-----------|--------0--|-----2-----|
D# |-----0-----|-----2-----|-----------|-----0-----|
A# |---2-------|---2-------|--0--------|-----------|
F  |-3---------|-0---------|-----------|-----------|

[0:22]===
 PART 1:
=========

         G           Em         Am           D
f  |-----------|-----------|------0----|----2---2--|
C  |-3-----3---|------3----|----1---1--|--------1--|
G# |---------0-|--------0--|---2-------|--2-----2--|
D# |----0------|----2------|--2--------|-0------0--|
A# |--2--------|---2-------|-0---------|-----------|
F  |-3---------|--0--------|-----------|-----------|
   This is my last dance with you, This is my only chance

         Em           Am         C           Am
f  |------0----|-----------|-----0-----|-------0---|
C  |-----------|-----1-----|-------1---|-----1--1--|
G# |----0------|---2----2--|---0-------|---2-------|
D# |---2-------|--2--------|--2--------|--2--------|
A# |--2--------|-0---------|-3---------|-0---------|
F  |-0---------|-----------|-----------|-----------|
   to do, all I can do, To let you know that what I feel for you is

         C           D
f  |------0----|-----2--5--|
C  |----1---1--|-----1---3-|
G# |---0-------|-----2-----|
D# |--2--------|-----0-----|
A# |-3---------|-----------|
F  |-----------|-----------|
   real         real...

[0:51]===
 PART 2:
=========

         G           Em         Am           D
f  |-----------|-----------|------0----|-2-----2---|
C  |-------3---|------3----|----1--1---|-1---1-----|
G# |---------0-|--------0--|---2-------|-2--2------|
D# |----0------|----2------|--2--------|-0---------|
A# |--2--------|---2-------|-0---------|-----------|
F  |-3---------|--0--------|-----------|-----------|
   This is the last chance for us, This is the moment that

         Em           Am         C           Am
f  |------0----|-----------|-----0-----|-------0---|
C  |-----------|-----1-----|-------1---|-----1--1--|
G# |----0------|---2----2--|---0-------|---2-------|
D# |---2-------|--2--------|--2--------|--2--------|
A# |--2--------|-0---------|-3---------|-0---------|
F  |-0---------|-----------|-----------|-----------|
   I just cant end, Before I know that theres a chance were more than

         Em           Am         Em          Am
f  |-------0---|-----0-----|------0----|-----------|
C  |--------0--|-------1---|-----0--0--|-----1-----|
G# |----0------|---2----2--|----0------|---2---2---|
D# |---2-------|--2--------|---2-------|--2--------|
A# |--2--------|-0---------|--2--------|-0---------|
F  |-0---------|-----------|-0---------|-----------|
   friends, so don't let go, Make it last all night

         C           Am
f  |--------3--|------5----|
C  |----5------|--------5--|
G# |---5--5----|----5------|
D# |--5--------|---7-------|
A# |-3---------|--7--------|
F  |-----------|-5---------|
   This is my last chance to make you

-------------------------------------------------------------------------
[1:32]==
 RIFF:   (this comes ONLY after PART 2)
========

         G           Em          Am           D
f  |------------|-----------|----0------|-----2-------|
C  |--3----3----|--3----3---|--3---1----|-----1-------|
G# |---------0--|---------0-|--------0--|-----2-------|
D# |-----0------|-----2-----|-----------|-----0-------|
A# |----2-------|----2------|--0--------|-------------|
F  |--3---------|--0--------|-----------|-------------|
   mine...

-------------------------------------------------------------------------

[1:42]===
 PART 3:  (same tabs in Part 1!)
=========

 I kept my feelings so deep
 I kept my dreams of you and me somewhere inside
 Although I pray that you would see it in my eyes.. oohu

[2:12]===
 PART 4:  (same tabs in Part 2!)
=========

 But this is my last chance to say
 Whats in my heart before you fade out of my life
 And then youll understand the way I feel inside
 So hold me close cause it feels so right
 This is my last chance to make you 

-------------------------------------------------------------------------

[2:52]===
 BRIDGE:  (add some strumming, it's a little tricky.)
=========

         G          Em
f  |------3----|------0----|
C  |-------3---|-----0---0-|
G# |---------0-|----0------|
D# |----0------|---2-------|
A# |---2-------|--2--------|
F  |-3---------|-0---------|
   mine..      Make this dream reality

         Am         C-D
f  |-0--0------|---3-----2-|
C  |-1---1-----|----5----1-|
G# |-2-----2---|--------22-|
D# |-2---------|--------00-|
A# |-0---------|-3---------|
F  |-----------|-----------|
   So close and yet so far, Gotta find a way into your heart

        Em         Am
f  |-0--0------|-----0-----|
C  |-0---0-----|-----------|
G# |-0----0----|---2-------|
D# |-2---------|--2--------|
A# |-2---------|-0---------|
F  |-0---------|-----------|
   Gotta speak my mind, Gotta open up to you this time

         C          Am
f  |-00---0----|-0-0--0----|
C  |-11-1-1----|-1-1---1---|
G# |-00-0-0----|-2-2---2---|
D# |-22-2-2----|-2-2---2---|
A# |-33-3-3----|-0-0---0---|
F  |-----------|-----------|
   I cant let you slip away tonight


[3:15]===
 PART 5:
=========

         G           Em         Am           D
f  |-----------|-----------|------0----|----2----2-|
C  |-------3---|------3----|----1--1---|-----------|
G# |---------0-|--------0--|---2-------|--2----2---|
D# |----0------|----2------|--2--------|-0----0----|
A# |--2--------|---2-------|-0---------|-----------|
F  |-3---------|--0--------|-----------|-----------|
   This is my last dance with you, This is my only chance 

         Em           Am         C           Am
f  |------0----|-----------|-----0-----|-------0---|
C  |-----------|-----1-----|-------1---|-----1--1--|
G# |----0------|---2----2--|---0-------|---2-------|
D# |---2-------|--2--------|--2--------|--2--------|
A# |--2--------|-0---------|-3---------|-0---------|
F  |-0---------|-----------|-----------|-----------|
   to do, all I can do, To let you know that what I feel for you is so 

         Em           Am         Em          Am
f  |--------0---|-----0-----|------0----|-----------|
C  |---------0--|-------1---|-----0--0--|-----1-----|
G# |----0-------|---2----2--|----0------|---2---2---|
D# |---2--------|--2--------|---2-------|--2--------|
A# |--2---------|-0---------|--2--------|-0---------|
F  |-0----------|-----------|-0---------|-----------|
   real, So don't let go, Just make it last for all night long...

        Am
f  |-----------|
C  |-----1-----|
G# |---2---2---|
D# |--2--------|
A# |-0---------|
F  |-----------|
   oooohuhu...

         C           Am
f  |--------3--|------5----|
C  |----5------|--------5--|
G# |---5--5----|----5------|
D# |--5--------|---7-------|
A# |-3---------|--7--------|
F  |-----------|-5---------|
   This is my last chance to make you 

[3:59]==
 OUTRO:
========
         G           Em         Am           D
f  |-----------|-----------|----0------|-------0---|
C  |-3-----3---|-3-----3---|--3---1----|-----1---1-|
G# |---------0-|---------0-|--------0--|---2-------|
D# |-----0-----|-----2-----|-----------|-0---------|
A# |---2-------|---2-------|--0--------|-----------|
F  |-3---------|-0---------|-----------|-----------|
   mine...                 uhuhuh..    uhuh

         G           Em          Am          D          G
f  |-----------|-----------|----0------|-2----5----|----------|
C  |-------3---|--3----3---|--3---1----|-1------3--|------3---|
G# |---------0-|-----------|--------0--|-2---------|------0---|
D# |-----0-----|-----2-----|-----------|-0---------|------0---|
A# |----2------|----2------|--0--------|-----------|------2---|
F  |--3--------|--0--------|-----------|-----------|------3---|
   my        my...                  yeah, yeah..  you mine... 

                       [End]

/===========================================================\
\                                      ajalbaniel@yahoo.com /
/===========================================================\             
Добавлено: 25.07.2012
Другие материалы по этой песне:
  • Аккорды и текст

Страница создана 14.03.2012
http://primanota.ru/mymp/last-chance-chords.htm
Привет, Гость.
Предлагаем пройти революционный курс по гитаре.
Подарок от PrimaNota.Ru, забирай!