PrimaNota.ru - самый крупный в мире бесплатный архив песенных текстов, аккордов, табулатур и нот


Mymp - Cool With You - таба, видео

Регистрация Запомнить меня
Войти через:  Facebook Google Twitter Vk Yandex Mail.ru

Mymp - Cool With You - таба, видео

Печатать
Просмотров: 90
Song: Cool With You
By  : MYMP
Album: ( Live Performance )
Standard Tuning: Open Em
Transcribed by: Joven Dasigan ( angeljov03@yahoo.com )

	Live version ng cool with you wala po to sa album nila maririnig nyo lang po
ito sa mga gigs nila sa bars. Pwede rin download yung version nila dito sa net. Walang
pinagbago dun sa original sabayan nyo na lang yung song para dun sa tap and tempo.
Enjoy!!!! This is 100% correct, paki rate n lang po..thanks!!!

Any comments and suggestions email na lng po sa angeljov03@yahoo.com

Standard Tuning
6=E     3=G
5=A     2=B
4=D     1=E

Lyrics of Verse 1, Pre-Chorus 1, Chorus & Bridge were included in the TAB.
Please see Additional Lyrics for Verse 2, Pre-Chorus 2 & Outtro.

Additional Lyrics

Verse 2:
Sometimes I sit by the fire and reminisce
About the time that we spent in front of it
And that old flame will never be the same

Pre-Chorus 2:
Until you comeback here and rekindle it
I just wanna share my heart with you again
'Coz baby...

Outtro:
I wanna be cool with you
just get back I could do with you
Oh-oo-woah  woah-oo-woah
Yo-oh
yesterday
Just wanna be cool with you again


       Intro
E---|-------------------------------------------------------------------|
B---|-----4--------------7--------------9--------------------------8----|
G---|-----4--------------6--------------9--------------------------7----|
D---|-----4--------------8--------------9--------------------------9----|
A---|-----2--------------6--------------7--------------------------7----|
E---|-------------------------------------------------------------------|


                     (end Intro)             Rhythm Figure 1  Verse
E---|---------------------------------||--|-----------------------------|
B---|-----5--/--7---------------------||--|--4--------------------------|
G---|--8--6--/--8--6\4----------------||--|--4--------------------------|
D---|--9----------------6p4-----------||--|--4--------------------------|
A---|--9------------------------------||--|--2--------------------------|
E---|--7------------------------------||--|-----------------------------|

E-----------------------------------------------------------------------|
B------------------7-----------------------9----------------------------|
G------------------6-----------------------9----------------------------|
D------------------8-----------------------9----------------------------|
A------------------6-----------------------7----------------------------|
E-----------------------------------------------------------------------|
    Late last night, I was going through


E-----------------------------------------------------------------------|
B-----------------------------------------------------------------------|
G-----------------------------------------------------------------------|
D-----------------------------------------------------------------------|
A-----------------------------------------------------------------------|
E-----------------------------------------------------------------------|
                                  some old things


E---------------|-------------------------------------------------------|
B---------------|-----------------------7--7----------------------------|
G---------------|--8--8-----------------6--6----------------------------|
D---------------|--9--9-----------------8--8----------------------------|
A---------------|--9--9-----------------6-------------------------------|
E---------------|--7----------------------------------------------------|
                      When I saw a picture of you, my best


E------------------------------------------------------------------|----|
B---------9--------------------------------------------------------|----|
G---------9--------------------------------------------------------|----|
D---------9--------------------------------------------------------|----|
A---------7--------------------------------------------------------|----|
E------------------------------------------------------------------|----|
                                                 friend


E-----------------------------------------------------------------------|
B------------------------------------7--7-------------------------------|
G---8--8-----------------------------6--6-------------------------------|
D---9--9-----------------------------8--8-------------------------------|
A---9--9-----------------------------6----------------------------------|
E---7-------------------------------------------------------------------|
       It reminded me of the days when you

                (end Rhy. Fig. 1)
E------------------------------------------------------------||--|------|
B---------------------------------------------------9--------||--|------|
G---------------------------------------------------9--------||--|------|
D---------------------------------------------------9--------||--|------|
A---------------------------------------------------7--------||--|------|
E------------------------------------------------------------||--|------|
                                  were mine

    Rhythm Figure 2  Pre-Chorus
E------------------------------------------6-----------7----------------|
B---------------5--5--7--------5--/--7-----------------7-----------7----|
G---------------------------------/--------------------8-----------8----|
D---------------6--6--6--------6-----8-----------------9-----------9----|
A---------------4--4--4-----------/--6-----------------9-----------9----|
E------------------------------------------------------7-----------7----|
    You had a way that always left me with


E---------7--------------|--------------4-------------------------------|
B---------7--------------|-----------5----------------------------------|
G---------8--------------|-----------x----------------------------------|
D---------9--------------|-----------6----------------------------------|
A------------------------|-----------4----------------------------------|
E------------------------|----------------------------------------------|
          a smile              I want those sweet days back again,

                      (end Rhy. Fig.2)
E---------------6-------------------------------------------------------|
B------------7----------------------------------------------------------|
G------------x----------------------------------------------------------|
D------------8----------------------------------------------------------|
A------------6----------------------------------------------------------|
E-----------------------------------------------------------------------|


                 Fill 1             Rhythm Figure 3  Chorus
E---------||--|--------------||--|--7-----------------------------------|
B---9--9--||--|--------------||--|--7-----------------------------------|
G---9--9--||--|--------------||--|--8-----------------------------------|
D---9--9--||--|-----9--------||--|--9-----------------------------------|
A------7--||--|--9-----9--7--||--|--9-----------------------------------|
E---7-----||--|--------------||--|--7-----------------------------------|
    'Coz baby...


E---7-----------------6-----------------------7-------------------------|
B---7-----------7--------7--------9--x--9--------9----------------------|
G---8-----------x-----------------9--x--9-------------------------------|
D---9-----------8-----------------9--x--9-------------------------------|
A---------------6-----------------7--x--7-------------------------------|
E-----------------------------------------------------------------------|
    It's a sunny day, but you're not around


E------|--7--7-----------------------6----------------------------------|
B------|--7--7-----------------7--------7-------------------------------|
G------|--8--8-----------------x----------------------------------------|
D------|--9--9-----------------8----------------------------------------|
A------|--9--------------------6----------------------------------------|
E------|--7-------------------------------------------------------------|
             That all the rain might as well be


E---------------7-----------------------------|--7----------------------|
B---9--x--9--------9--------------------------|--7----------------------|
G---9--x--9-----------------------------------|--8----------------------|
D---9--x--9-----------------------------------|--9----------------------|
A---7--x--7-----------------------------------|--9----------------------|
E---------------------------------------------|--7----------------------|
             pouring down


E---7--------------------------6-----------------------7----------------|
B---7--------------------7--------7--------9--x--9--------9-------------|
G---8--------------------x-----------------9--x--9----------------------|
D---9--------------------8-----------------9--x--9----------------------|
A------------------------6-----------------7--x--7----------------------|
E-----------------------------------------------------------------------|
    It's such a shame 'cause my heart's on


E------------------------------------------------|----------------------|
B------------------------------------------------|----------------------|
G------------------------------------------------|----------------------|
D------------------------------------------------|----------------------|
A------------------------------------------------|----------------------|
E------------------------------------------------|----------------------|
                the ground


E-----------------------------------------------------------------------|
B------------------------------------------------8----------------------|
G------------------------------------------------x----------------------|
D------------------------------------------------9----------------------|
A------------------------------------------------7----------------------|
E-----------------------------------------------------------------------|
    Just wanna be cool with you again

    (end Rhy. Fig. 3)                          Fill 2
E------------7-----7--------7-----------||--|--7-----6-----||-----------|
B------------8-----8--------7-----------||--|--7-----6-----||-----------|
G---------------------------8-----------||--|--8-----7-----||-----------|
D---------------------------9-----------||--|--9-----8-----||-----------|
A---------------------------9-----------||--|--9-----8-----||-----------|
E---------------------------7-----------||--|--7-----6-----||-----------|


Play Rhy. Fig. 1 (w/ verse 2)
2 (w/ Pre-Chorus 2)
Fill 1
Rhy. Fig. 3 & Fill 2
beforeplaying Rhy. Fig. 4


             Rhythm Figure 4  Bridge
E------|-----4-----------------------7----------------------------------|
B------|-----4-----------------------7----------------------------------|
G------|-----4-----------------------8----------------------------------|
D------|-----6-----------------------9----------------------------------|
A------|-----6-----------------------9----------------------------------|
E------|-----4-----------------------7----------------------------------|
                I fall asleep at night and often see you


E---------------------4-------------------------------------------------|
B---------------------4-------------------------------------------------|
G---------------------4-------------------------------------------------|
D---------------------6-------------------------------------------------|
A---------------------6-------------------------------------------------|
E---------------------4-------------------------------------------------|

E------4-----------------------------0----------------------------------|
B------5-----------------------------0----------------------------------|
G------6-----------------------------1----------------------------------|
D------6-----------------------------2----------------------------------|
A------4-----------------------------2----------------------------------|
E------------------------------------0----------------------------------|
    here, in my dreams


E---------2--------------------------|--4-------------------------------|
B---------2--------------------------|--4-------------------------------|
G---------3--------------------------|--4-------------------------------|
D---------2--------------------------|--6-------------------------------|
A---------4--------------------------|--6-------------------------------|
E---------2--------------------------|--4-------------------------------|
          holdin' me


E---------------------------------------7-------------------------------|
B---------------------------------------7-------------------------------|
G---------------------------------------8-------------------------------|
D---------------------------------------9-------------------------------|
A---------------------------------------9-------------------------------|
E---------------------------------------7-------------------------------|
    But when I wake up and I realise that


E------------4----------------------------------------------------------|
B------------4----------------------------------------------------------|
G------------4----------------------------------------------------------|
D------------6----------------------------------------------------------|
A------------6----------------------------------------------------------|
E------------4----------------------------------------------------------|

E---------4--------------------0-----0-----0--------------|-------------|
B---------5--------------------0-----0-----0--------------|-------------|
G---------6--------------------1-----1-----1--------------|-------------|
D---------6--------------------2-----2-----2--------------|-------------|
A---------4--------------------2-----2-----2--------------|-------------|
E------------------------------0-----0-----0--------------|-------------|
    you're not here with me


E------------2--2-------------------------------------------------------|
B------------2--2-------------------------------------------------------|
G------------3--3-------------------------------------------------------|
D-----------------------------------------------------------------------|
A-----------------------------------------------------------------------|
E------------2--2-------------------------------------------------------|
    It hurts so much I gotta have you baby

    (end Rhy. Fig. 4)
E---------------------------------------------------||------------------|
B---------------------------------------------------||------------------|
G---------------------------------------------------||------------------|
D---------------------------------------------------||------------------|
A---------------------------------------------------||------------------|
E---------------------------------------------------||------------------|


Play Fill 1 then Chorus (w/Outtro on the scond time) twice except
last bar on the second time.  Then play Ending.

       Ending
E---|-------------------------------------------------------------------|
B---|--------------------------------------------------8--------8-------|
G---|--------------------------------------------------9--------9-------|
D---|--------------------------------------------------9--------9-------|
A---|--------------------------------------------------7--------7-------|
E---|-------------------------------------------------------------------|
       Just wanna be cool with you again


E------------------------------||---------------------------------------|
B------------------------7-----||---------------------------------------|
G------------------------8-----||---------------------------------------|
D------------------------9-----||---------------------------------------|
A------------------------9-----||---------------------------------------|
E------------------------7-----||---------------------------------------|


========================================================================
==                       TABLATURE EXPLANATION                        ==
========================================================================

----------                ----------                ----t---|
----5h8--- Hammeron       ----(8)--- Ghost          ----6---| Tap
----------                ---------- Note           --------|
----5p8--- Pulloff        ----------                --------|

----------                ----------                -----p--|
----5/8--- Slide Up       -----x---- Dead           -----7--| Pop
----------                ---------- Note           --s-----|
----5\8--- Slide Down     ----------                --5-----| Slap

----------                ||------|| Repeat         --------|
----5~~~-- Vibrato        ||*----*||                ---5^---| Bend
----------                ||*----*||                --------|
----------                ||------||                --------|

----------                ----------                --------|
-4:------- Time           ----------                --------|
-4:------- Signature      ----------                --------|
----------                ----------                --------|

Rhythm:
  w = whole note            W = dotted whole
  h = half note             H = dotted half
  q = quarter note          Q = dotted quarter
  e = eighth note           E = dotted eighth
  s = sixteenth note        S = dotted sixteenth
  t = 32nd note             T = dotted 32nd
  x = 64th note             X = dotted 64th
  ^ = triplet
Добавлено: 14.11.2013
Другие материалы по этой песне:
  • Аккорды и текст

Страница создана 14.11.2013
http://primanota.ru/mymp/cool-with-you-chords.htm
Привет, Гость.
Предлагаем пройти революционный курс по гитаре.
Подарок от PrimaNota.Ru, забирай!