PrimaNota.ru - самый крупный в мире бесплатный архив песенных текстов, аккордов, табулатур и нот


Mylets - Arizona - таба, видео

Регистрация Запомнить меня
Войти через:  Facebook Google Twitter Vk Yandex Mail.ru

Mylets - Arizona - таба, видео

Печатать
Просмотров: 22
Уроки эстрадного вокала в Санкт-Петербурге
-------------------------------------------------------------------------------
                             Arizona - Mylets
-------------------------------------------------------------------------------
Tabbed by: Rory H
E-mail: rdeh10@googlemail.com

Tuning: EADGBe

Thought I'd tab this as it is a fantastic track. I have used videos of live performances and used the 
recording to get this as accurate as I can, but I think there may still be a few differences. There are
some small variations on some of the sections such as guitar track 2 in the verse, but they're low in the
mix and who said anything was wrong with a little improv ;)
If you have any corrections or improvements, be sure to leave them below, or send me an email :)

INTRO/VERSE:
e|-------------------------|-------------------------|----------------------|-------------------------|
B|-------------------------|-------------------------|----------------------|-------------------------|
G|-9---9-7---7-6---6-------|-7---7-6---6-------------|-------------------6~-|-------------7---7---6p0-| 
D|-------------------9---9-|-------------9---9-7---7-|-6---6-7---7-9---9----|-6---6-7---7-------------|
A|---5-----5-----5-----5---|---0-----0-----0-----0---|----------------------|-------------------------|
E|-------------------------|-------------------------|---0-----0-----0------|---0-----0-----0---0-----|

e|-------------------------|-------------------------|-------------------------|-------------------------|
B|-------------------------|-------------------------|-------------------------|-------------------------|
G|-9---9-7---7-6---6-------|-7---7-6---6-------------|-------------------6---6-|-------------7---7---6p0-| x5
D|-------------------9---9-|-------------9---9-7---7-|-6---6-7---7-9---9-------|-6---6-7---7-------------|
A|---5-----5-----5-----5---|---0-----0-----0-----0---|-------------------------|-------------------------|
E|-------------------------|-------------------------|---0-----0-----0-----0---|---0-----0-----0---0-----|
 |
 |GTR2 (using pitch shift at +1 octave)
e|-14------------------------------------------------|-------------------------------------------------|
B|--x------------------------------------------------|-5-----------------------------------------------|
G|-11--[x24]-----------------------------------------|-4--[x24]----------------------------------------| x5
D|-12------------------------------------------------|-6-----------------------------------------------|
A|---------------------------------------------------|-------------------------------------------------|
E|---------------------------------------------------|-------------------------------------------------|

CHORUS:
e|----------------|----------------|----------------|----------------|
B|----------------|----------------|----------------|----------------|
G|----------------|----4-4-----4-4-|----------------|----6-6-----6-6-|
D|----7-7-----7-7-|----------------|----6-6-----6-6-|----------------|
A|----------------|-5---5---5---5--|----------------|-7---7---7---7--|
E|-7---7---7---7--|----------------|-5---5---5---5--|----------------|

e|----------------|----------------|------------------|-------------------|
B|----------------|----------------|------------------|-------------------|
G|----------------|----4-4-----4-4-|------------------|-----6-6-----6-6p0-|
D|----7-7-----7-7-|----------------|----6-6-----6-6p0-|-------------------|
A|----------------|-5---5---5---5--|------------------|-7---7---7---7-----|
E|-7---7---7---7--|----------------|-5---5---5---5----|-------------------|

e|----------------|------------------|----------------|-------------------|
B|----------------|------------------|----------------|-------------------|
G|----------------|----4-4-----4-4p0-|----------------|-----6-6-----6-6p0-|
D|----7-7-----7-7-|------------------|----6-6-----6-6-|-------------------|
A|----------------|-5---5---5---5----|----------------|-/7---7---7---7----|
E|-7---7---7---7--|------------------|-5---5---5---5--|-------------------|

e|----------------|------------------|----------------|-----------------|----------------|
B|----------------|------------------|----------------|-----------------|----------------|
G|----------------|----4-4-----4-4p0-|----------------|-----6-6-----6-6-|----6-6-----6-6-|
D|----7-7-----7-7-|------------------|----6-6-----6-6-|-----------------|----------------|
A|----------------|-5---5---5---5----|----------------|-/7---7---7---7--|-7---7---7---7--|
E|-7---7---7---7--|------------------|-5---5---5---5--|-----------------|----------------|

VERSE:
e|-------------------------|-------------------------|-------------------------|-------------------------|
B|-------------------------|-------------------------|-------------------------|-------------------------|
G|-9---9-7---7-6---6-------|-7---7-6---6-------------|-------------------6---6-|-------------7---7---6---| x4
D|-------------------9---9-|-------------9---9-7---7-|-6---6-7---7-9---9-------|-6---6-7---7-------------|
A|---5-----5-----5-----5---|---0-----0-----0-----0---|-------------------------|-------------------------|
E|-------------------------|-------------------------|---0-----0-----0-----0---|---0-----0-----0---0---0-|
 |
 |GTR2 (using pitch shift at +1 octave)
e|-14------------------------------------------------|-----------------------------------------------|
B|--x------------------------------------------------|-5---------------------------------------------|
G|-11--[x24]-----------------------------------------|-4--[x24]--------------------------------------| x4
D|-12------------------------------------------------|-6---------------------------------------------|
A|---------------------------------------------------|-----------------------------------------------|
E|---------------------------------------------------|-----------------------------------------------|

CHORUS:
e|----------------|------------------|----------------|----------------|
B|----------------|------------------|----------------|----------------|
G|----------------|----4-4-----4-4p0-|----------------|----6-6-----6-6-|
D|----7-7-----7-7-|------------------|----6-6-----6-6-|----------------|
A|----------------|-5---5---5---5----|----------------|-7---7---7---7--|
E|-7---7---7---7--|------------------|-5---5---5---5--|----------------|

e|----------------|----------------|----------------|-------------------|
B|----------------|----------------|----------------|-------------------|
G|----------------|----4-4-----4-4-|----------------|-----6-6-----6-6p0-|
D|----7-7-----7-7-|----------------|----6-6-----6-6-|-------------------|
A|----------------|-5---5---5---5--|----------------|-/7---7---7---7----|
E|-7---7---7---7--|----------------|-5---5---5---5--|-------------------|

e|----------------|------------------|----------------|-------------------|
B|----------------|------------------|----------------|-------------------|
G|----------------|----4-4-----4-4p0-|----------------|-----6-6-----6-6p0-|
D|----7-7-----7-7-|------------------|----6-6-----6-6-|-------------------|
A|----------------|-5---5---5---5----|----------------|-/7---7---7---7----|
E|-7---7---7---7--|------------------|-5---5---5---5--|-------------------|

e|----------------|------------------|----------------|-----------------|----------------|
B|----------------|------------------|----------------|-----------------|----------------|
G|----------------|----4-4-----4-4p0-|----------------|-----6-6-----6-6-|----6-6-----6-6-|
D|----7-7-----7-7-|------------------|----6-6-----6-6-|-----------------|----------------|
A|----------------|-5---5---5---5----|----------------|-/7---7---7---7--|-7---7---7---7--|
E|-7---7---7---7--|------------------|-5---5---5---5--|-----------------|----------------|

BRIDGE:
e|---------|----------|---------|---------|---------|----------|---------|----------| You may want to play
B|---------|----------|---------|---------|---------|----------|---------|----------| chords here? Also 
G|---------|----------|---------|---------|---------|----------|---------|----------| there is some 
D|---------|----------|---------|---------|---------|----------|---------|----------| fiddling with top 
A|---------|----------|---------|---------|---------|----------|---------|----------| strings. Play through
E|-7-------|-10-------|-5-------|-0-------|-7-------|-10-------|-5-------|-0--------| next line

e|-------------------------|-------------------------|-------------------------|-------------------------|
B|-------------------------|-------------------------|-------------------------|-------------------------|
G|-9-9-9-7-7-7-6-6-6-------|-7-7-7-6-6-6-------------|-------------------6-6-6-|-------------7-7-7-7-6-6-| 
D|-------------------9-9-9-|-------------9-9-9-7-7-7-|-6-6-6-7-7-7-9-9-9-------|-6-6-6-7-7-7-------------|
A|-------------------------|-------------------------|-------------------------|-------------------------|
E|-------------------------|-------------------------|-------------------------|-------------------------|

e|-------------------------|-------------------------|-------------------------|-------------------------|
B|-------------------------|-------------------------|-------------------------|-------------------------|
G|-9-9-9-7-7-7-6-6-6-------|-7-7-7-6-6-6-------------|-------------------6-6-6-|-------------7-7-7-6-6-6-| 
D|-------------------9-9-9-|-------------9-9-9-7-7-7-|-6-6-6-7-7-7-9-9-9-------|-6-6-6-7-7-7-------------|
A|-------------------------|-------------------------|-------------------------|-------------------------|
E|-------------------------|-------------------------|-------------------------|-------------------------|


CHORUS:
  GTR1
e|-------------------------|-------------------------|-------------------------|-------------------------|
B|-------------------------|-------------------------|-------------------------|-------------------------|
G|-9-9-9-7-7-7-6-6-6-------|-7-7-7-6-6-6-------------|-------------------6-6-6-|-------------7-7-7-6-6-6-| 
D|-------------------9-9-9-|-------------9-9-9-7-7-7-|-6-6-6-7-7-7-9-9-9-------|-6-6-6-7-7-7-------------|
A|-------------------------|-------------------------|-------------------------|-------------------------|
E|-------------------------|-------------------------|-------------------------|-------------------------|
 |
 |GTR2
e|-------------------------|-------------------------|-------------------------|-------------------------|
B|-----14-15-------------14|-17----14----15----14----|-------------------12----|-------------12----------|
G|--16---------------------|-------------------------|-------------14----------|-------14----------13----| 
D|-------------------------|-------------------------|-------14----------------|-14----------------------|
A|-------------------------|-------------------------|-------------------------|-------------------------|
E|-------------------------|-------------------------|-------------------------|-------------------------|

  GTR1
e|-------------------------|-------------------------|-------------------------|-------------------------|
B|-------------------------|-------------------------|-------------------------|-------------------------|
G|-9-9-9-7-7-7-6-6-6-------|-7-7-7-6-6-6-------------|-------------------6-6-6-|-------------7-7-7-6-6-6-| 
D|-------------------9-9-9-|-------------9-9-9-7-7-7-|-6-6-6-7-7-7-9-9-9-------|-6-6-6-7-7-7-------------|
A|-------------------------|-------------------------|-------------------------|-------------------------|
E|-------------------------|-------------------------|-------------------------|-------------------------|
 |
 |GTR2
e|-------------------------|-------------------------|-------------------------|-------------------------|
B|--14---15--------------14|-17----14----15----14----|-------------------12----|-------------15----14----|
G|-------------------------|-------------------------|-------------14----------|-------14----------------| 
D|-------------------------|-------------------------|-------14----------------|-14----------------------|
A|-------------------------|-------------------------|-------------------------|-------------------------|
E|-------------------------|-------------------------|-------------------------|-------------------------|
 
  GTR1
e|-------------------------|-------------------------|-------------------------|-------------------------|
B|-------------------------|-------------------------|-------------------------|-------------------------|
G|-9-9-9-7-7-7-6-6-6-------|-7-7-7-6-6-6-------------|-------------------6-6-6-|-------------7-7-7-6-6-6-| 
D|-------------------9-9-9-|-------------9-9-9-7-7-7-|-6-6-6-7-7-7-9-9-9-------|-6-6-6-7-7-7-------------|
A|-------------------------|-------------------------|-------------------------|-------------------------|
E|-------------------------|-------------------------|-------------------------|-------------------------|
 |
 |GTR2
e|-------------------------|-------------------------|-------------------------|-------------------------|
B|-----14-15-------------14|-17----14----15----14----|-------------------12----|-------------12----------|
G|--16---------------------|-------------------------|-------------14----------|-------14----------13----| 
D|-------------------------|-------------------------|-------14----------------|-14----------------------|
A|-------------------------|-------------------------|-------------------------|-------------------------|
E|-------------------------|-------------------------|-------------------------|-------------------------|
 |
 |GTR3 (all shifted to +1 octave)
e|-------------------------|-------------------------|-------------------------|-------------------------|
B|-----9-10---------------9|-12-----9----10-----9----|-14----9----12-----9-----|-10----9-----10-----9----|
G|--11---------------------|-------------------------|-------------------------|-------------------------|
D|-------------------------|-------------------------|-------------------------|-------------------------|
A|-------------------------|-------------------------|-------------------------|-------------------------|
E|-------------------------|-------------------------|-------------------------|-------------------------|

Repeat the last part with 3 guitars once, and to finish, play their final bars x2

OUTRO:
e|-------------------------|-------------------------|-------------------------|-------------------------|
B|-------------------------|-------------------------|-------------------------|-------------------------|
G|-9---9-7---7-6---6-------|-7---7-6---6-------------|-------------------6---6-|-------------7---7---6---| x4
D|-------------------9---9-|-------------9---9-7---7-|-6---6-7---7-9---9-------|-6---6-7---7-------------|
A|---5-----5-----5-----5---|---0-----0-----0-----0---|-------------------------|-------------------------|
E|-------------------------|-------------------------|---0-----0-----0-----0---|---0-----0-----0---0---0-|

e|---|
B|-5-|
G|-6-|
D|-7-|
A|-0-|
E|---|


************************************

| /   slide up
| \   slide down
| h   hammer-on
| p   pull-off
| ~   vibrato
| +   harmonic
| x   Mute note
| b   Bend
| pb  Pre-bend
| br  Bend release
| pbr Pre-bend release
| brb Bend release bend

************************************
Добавлено: 16.06.2016
Другие материалы по этой песне:
  • Аккорды и текст

Страница создана 16.06.2016
http://primanota.ru/mylets/arizona-chords.htm
Привет, Гость.
Предлагаем пройти революционный курс по гитаре.
Подарок от PrimaNota.Ru, забирай!