PrimaNota.ru - самый крупный в мире бесплатный архив песенных текстов, аккордов, табулатур и нот


My Vitriol - Tongue Tied - таба, видео

Регистрация Запомнить меня
Войти через:  Facebook Google Twitter Vk Yandex Mail.ru

My Vitriol - Tongue Tied - таба, видео

Печатать
Просмотров: 125
Авторы музыки: Som Wardner

-------------------------------------------------------------------------------
			     MY VITRIOL - Tongue Tied
-------------------------------------------------------------------------------

By: a person in london

Capo 4th Fret

i've tabbed out the basic song, with chord shapes etc. i haven't put in exact
strumming / picking patterns etc as i figure it would be a waste of time - they
are simple enough once you know the main song which i have expertly put below.

same goes with the haunting little embellishments they put in the verses

Intro

e|------------------------------------------------------------------------|
B|------0-------0-------0-------0-----0-~~--0-----------------------------|
G|------0-------0-------0-------0-----0-~~--0-0---------------------------|
D|------2-------2-------2-------2-----2-~~----0---------------------------|
A|--5-5---5-5-5---5-4-4---4-4-4---4-3-------------------------------------|
E|------------------------------------------------------------------------|

Verse   (these are the shapes, i'm not going to waste time putting the exact 
	strumming/picking patterns) 

e|-----0--2--0-----0--2--0------------------------------------------------|
B|-----0--0--0-----0--0--0-----0-----0-----0------------------------------|
G|-----0--0--0-----0--0--0-----0-----0-----0------------------------------|
D|--2-----------2-----------2--2--2--2--2--2------------------------------|
A|--2-----------2-----------3-----0-----3--2------------------------------|
E|--0-----------0--------------------------0------------------------------|

this is played over the top...

e|------------------------------------------------------------------0-----|
B|----------------------------------------------------3---1-p-0-----0-----|
G|--11--11-h-12--12--11----4--4-h-5--5--4---2 times---0---0---------0-----|
D|--12--12-------12--12----5--5------5--5-------------2---2------2--------|
A|----------------------------------------------------3---0------2--------|
E|---------------------------------------------------------------0--------|

then all hell breaks loose with these shapes...

e|---------------------------------------------------------------------------|
B|---------------------------------------------------------------------------|
G|---------------------------0--0--0-----------------------------------------|
D|--2--4~b--2--4~b--2--4~b---2--2--2-----------------------------------------|
A|--2-------3-------0--------5--4--3-----------------------------------------|
E|--0------------------------------------------------------------------------|

the storm eases with...

e|---------------------------------------------------------------------------|
B|--0--0--0--0---------------------------------------------------------------|
G|--0--0--0--0---------------------------------------------------------------|
D|--2--2--2--2---------------------------------------------------------------|
A|--2--3--0--3---------------------------------------------------------------|
E|--0------------------------------------------------------------------------|

calm is restored and it goes back to the first verse to do it all again
man, i am good.

"the only constant is change"
Добавлено: 19.04.2012
Другие материалы по этой песне:
  • Аккорды и текст

Страница создана 19.04.2012
http://primanota.ru/my-vitriol/tongue-tied-chords.htm
Привет, Гость.
Предлагаем пройти революционный курс по гитаре.
Подарок от PrimaNota.Ru, забирай!