PrimaNota.ru - самый крупный в мире бесплатный архив песенных текстов, аккордов, табулатур и нот


My Vitriol - Infantile - аккорды и текст, таба, видео

Регистрация Запомнить меня
Войти через:  Facebook Google Twitter Vk Yandex Mail.ru

My Vitriol - Infantile - аккорды и текст, таба, видео

Печатать
Просмотров: 152
Авторы музыки: Som Wardner
Авторы текста: Som Wardner
Infantile
My Vitriol
Band: My Vitriol
Song: Infantile
Tuning: Standard
Tabbed by $@NDER

Verse Just strum these chords vary up and down strokes
e|-0------------0---------------|
B|-0------------0---------------|
G|-2------------0---------------|
D|-2------------2---------------|
A|-0------------2---------------|
E|-0------------0---------------|

Pre-chorus
e|----------------------------------------|
B|----------------------------------------|
G|-4-4-4-5-5-5----------------------------|
D|-4-4-4-5-5-5----------------------------|
A|-2-2-2-3-3-3----------------------------|
E|-2-2-2-3-3-3----------------------------|

Chorus
e|-----------------3-3-3-3-3---------------|
B|-3-3-3-2-2-2-----3-3-3-3-3---------------|
G|-5-5-5-4-4-4-----0-0-0-0-0---------------|
D|-5-5-5-4-4-4-7-7-0-0-0-0-0---------------|
A|-3-3-3-2-2-2-7-7-2-2-2-2-2---------------|
E|-------------5-5-3-3-3-3-3---------------|

Bridge
e|-----2-----------------------------------|
B|-----2-2---------------------------------|
G|-----4--4-5------------------------------|
D|-----4--4-5------------------------------|
A|-2---2--2-3------------------------------|
E|-----------------------------------------|

These are just the part for the rithym guitar i haven't tabbed out the solo 
part but it sounds fine like this
     
Добавлено: 27.07.2013
Другие материалы по этой песне:
  • Аккорды и текст

Страница создана 08.06.2012
http://primanota.ru/my-vitriol/infantile-chords.htm
Привет, Гость.
Предлагаем пройти революционный курс по гитаре.
Подарок от PrimaNota.Ru, забирай!