PrimaNota.ru - самый крупный в мире бесплатный архив песенных текстов, аккордов, табулатур и нот


My Vitriol - Game Of Pricks - таба, видео

Регистрация Запомнить меня
Войти через:  Facebook Google Twitter Vk Yandex Mail.ru

My Vitriol - Game Of Pricks - таба, видео

Печатать
Просмотров: 67
Уроки эстрадного вокала в Санкт-Петербурге
Авторы музыки: Robert Pollard
Авторы текста: Robert Pollard
Song: Game of pricks
Band: My Vitriol
Tuning: Standard
Tabbed by $@NDER

Intro
|------------------------------------------------------------|
|------------------------------------------------------------|
|-13-13-13-13-13-13-13-13------------14-14-14-14-14-14-14-14-|
|------------------------11-11-11-11-------------------------|
|------------------------------------------------------------|
|------------------------------------------------------------|

there\'s not much guitar in the verse

Chorus
|-0-0-0-0-0-0-0-0-0-0-0-0-0-0-0---------------------------------|
|-0-0-0-0-0-0-0-0-0-0-0-0-0-0-0---------------------------------|
|-2-2-2-2-2-2-2-2-2-2-2-2-2-2-2-7-7-7-7-7-7-7-7-7-7-7-7-7-7-7-7-|
|-2-2-2-2-2-2-2-2-2-2-2-2-2-2-2-7-7-7-7-7-7-7-7-7-7-7-7-7-7-7-7-|
|-0-0-0-0-0-0-0-0-0-0-0-0-0-0-0-5-5-5-5-5-5-5-5-5-5-5-5-5-5-5-5-|
|---------------------------------------------------------------|

|---------------------------------|
|---------------------------------|
|---------------------------------|
|-7-7-5-5-4-4-5-5-7-7-7-7-7-7-7-7-|
|-7-7-5-5-4-4-5-5-7-7-7-7-7-7-7-7-|
|-5-5-3-3-2-2-3-3-5-5-5-5-5-5-5-5-|

for the end just repeat the second part of the chorus a couple of times
     
Добавлено: 27.06.2013
Другие материалы по этой песне:
  • Аккорды и текст

Страница создана 27.06.2013
http://primanota.ru/my-vitriol/game-of-pricks-chords.htm
Привет, Гость.
Предлагаем пройти революционный курс по гитаре.
Подарок от PrimaNota.Ru, забирай!