PrimaNota.ru - самый крупный в мире бесплатный архив песенных текстов, аккордов, табулатур и нот


My Vitriol - Cemented Shoes - аккорды и текст, таба, видео

Регистрация Запомнить меня
Войти через:  Facebook Google Twitter Vk Yandex Mail.ru

My Vitriol - Cemented Shoes - аккорды и текст, таба, видео

Печатать
Просмотров: 132
Авторы музыки: Som Wardner
Авторы текста: Som Wardner
Cemented Shoes
My Vitriol



Date: Sat, 14 Jul 2001 02:32:47 -0400
From: sander p 
Subject: m/my_vitriol/cemented_shoes.crd

Band: My Vitriol
Song: Cemented Shoes
Tuning: Standard
Tabbed By: $@NDER

Intro
e|-3-x-3-x-3-x-3-x-3-x-3-x-------3-3-3------3-3-3-----------|
B|-4-x-4-x-4-x-3-x-3-x-3-x-------4-4-4------4-4-4-----------|
G|-5-x-5-x-5-x-5-x-5-x-5-x-------5-5-5------5-5-5-----------|
D|-5-x-5-x-5-x-5-x-5-x-5-x-------6-6-6------6-6-6-----------|
A|-3-x-3-x-3-x-3-x-3-x-3-x-3-3-3------3-3-3-----------------|
E|-3-x-3-x-3-x-3-x-3-x-3-x-3-3-3------3-3-3-----------------|

Prechorus
|----------------------------------------|
|----------------------------------------|
|----------------------------------------|
|-4-4-4-4-6-6-6-6-6-6-6-6-6-6-6-6-6-6-6--|
|-4-4-4-4-6-6-6-6-6-6-6-6-6-6-6-6-6-6-6--|
|-2-2-2-2-4-4-4-4-4-4-4-4-4-4-4-4-4-4-4--|

Chorus
|----------------------------------------|
|----------------------------------------|
|-------------9--------------------------|
|-5-5-5-5-5-6-9-9-9-9-9-9-9-9-9-9-9------|
|-5-5-5-5-5-6-7-9-9-9-9-9-9-9-9-9-9------|
|-3-3-3-3-3-4---7-7-7-7-7-7-7-7-7-7------|

Bridge(Find your Way around these chords)
|-3--4--6--3--3--------------------------------|
|-4--4--6--3--3--------------------------------|
|-5--4--6--0--3--------------------------------|
|-5--6--8--0--5--------------------------------|
|-3--6--8--2--5--------------------------------|
|-3--4--6--3--3--------------------------------|

Solo
|-10-10-10-13-13-13-11-11-11-10-10-10-11-11-11-10-10-10--|
|--------------------------------------------------------|
|--------------------------------------------------------|
|--------------------------------------------------------|
|--------------------------------------------------------|
|--------------------------------------------------------|

The solo and the strumming are not correct and the bridge could be wrong but 
I couldn't
Find anything better


Добавлено: 16.12.2013
Другие материалы по этой песне:
  • Аккорды и текст

Страница создана 23.02.2012
http://primanota.ru/my-vitriol/cemented-shoes-chords.htm
Привет, Гость.
Предлагаем пройти революционный курс по гитаре.
Подарок от PrimaNota.Ru, забирай!